Bettens Sarah - Not Insane Chords & Tabs

 

Not Insane Chords & Tabs

Bettens Sarah Chords & Tabs

Version: 1 Type: Tab 0 ratings
1 star 2 stars 3 stars 4 stars 5 stars
comments

Not Insane Tab

   
intro: 4x
e -----------------|
b -----------------|
g -----------------|
d --2-2-2-4--2-2-2-|
a --2-2-2-2--2-2-2-|
E -----------------|

verses (chords)

   em                   C           D     B7
--------------------|------------|--2--|--2--|
--------------------|------------|--3--|-----|
------------2-------|------------|--2--|--2--|
--2-2-2-4-2-2-2-4-2-|--2-2-2-4-2-|-----|--1--|
--2-2-2-2-2-2-2-2-2-|--3-3-3-3-3-|-----|--2--|
--------------------|------------|-----|-----|

chorus:
G4/F# 220033
C4    x32033
G4    320033
D     xxx232
B7    x21202

bridge:
  am         dm         am        em                   C
----------|--1-0-3-1-|----------|-------------|-----------|
--1-0-3-1-|--3-3-3-3-|--1-1-0-0-|-------------|-----------|
--2-2-2-2-|--2-2-2-2-|--2-2-2-2-|--------2----|-----------|
--2-2-2-2-|----------|--2-2-2-2-|--2--4--2--4-|--2--4--2--|
----------|----------|----------|--2--2--2--2-|--2--2--3--|
----------|----------|----------|-------------|-----------|


intro
[ Tab from: http://www.guitartabs.cc/tabs/b/bettens_sarah/not_insane_tab.html ]
verse:
    em                            C                    
for every time you tell me that I can't be who I am
    em                              C                    
for every time you twist my arm and get me to confess
    D               B7            
for every door you close on me


for every boy or girl you turn your back to you will pay
the price of someday knowing that you think you tried
and yet you failed
to see that you can't change me

em  C  em  C

chorus:
G4/Fis    C4         
I told myself today
      G4             D            
it's pretty nice to find your way
G4/Fis    C4             
no matter what you say
D    B7         em  C 
I am not insane

verse: 
for every so called victory you lose a piece of you
the one that shows you love can be in everything you do
love can be in everything you do

chorus

bridge:
am               
look inside you
dm                  
find what drives you
an       em         C
I can't change you

chorus
(instead of em play G4/Fis on "I am not insane")
chorus


Comments