Bettencourt Nuno - Crash Landing Chords & Tabs

 

Crash Landing Chords & Tabs

Bettencourt Nuno Chords & Tabs

Version: 1 Type: Tab 0 ratings
1 star 2 stars 3 stars 4 stars 5 stars
comments

Crash Landing Tab

Guitar tablature--
Crash Landing of the Bumblebee
Written/Played by Nuno Duarte Gil Mendes Bettencourt
From 1992 album Guitars That Rule The World

Tabbed by Cody Wright.
Cody@Legendaryvibes.zzn.com

--------------------------------------------------------------------------------

The background music has ALOT to do with the attitude of this song..
So when you play the guitar part, it may sound off, but they're not, because the background music 
compliments the guitar so extraordinarily. I strongly suggest studying this song before playing it.

Beginning played with light overdrive and delay, neck pickup position, guitar tuned down 1/2 step.

|--12~~~~~~~~~~~~~~~~~~~~~~~~~~~~~~~~~~~~~~~~~~~~~~~~~~~\\\\\\\\pick scrape\\\\|
|-------------------------------------------------------\\\\\\\\-------\\\\\\\-|
|-------------------------------------------------------\\\\\\\\-----\\\\\\\\\-|
|-------------------------------------------------------\\\\\\\\-----\\\\\\\----|
|---------------------------------------------------------\\\\\\\------\\\\\\\--|
|--------------------------------------------------------\\\\\\------\\\\\\----|

[ Tab from: http://www.guitartabs.cc/tabs/b/bettencourt_nuno/crash_landing_tab.html ]
|--12---12----------------------------------------------12---12------------------17---------17--|
|---x-----x---15--15~~~---15---15--/17--13~~-----x----x---15--15~~---------15^-------15^--------|
|---x-----x--------------------x-----x--------------------x----x--------------------------------|
|---x-----x--------------------x-----x--------------------x----x--------------------------------|
|-----------------------------------------------------------------------------------------------|
|-----------------------------------------------------------------------------------------------|

|----------------------------------------------------------17h19^----22^--22--19-----------20^--20------|
|---15--15--15-/-17--13^---------------13~~~------17---------------------------22~----------------------|
|-----------------------------14--12--14----------------------------------------------------------------|
|-------------------------------------------------------------------------------------------------------|
|-------------------------------------------------------------------------------------------------------|
|-------------------------------------------------------------------------------------------------------|
        V Played rapidly V                                                                      V Fading out V
|--17------------17-----------------------------------------------------------------------------------------------|
|-----20\19\17-----------------------------------20---------------------------------------------------------------|
|---------------------20\19\17--------17-19-19^--19--17----------------16----17---19---20----19----17-------------|
|------------------------------------19-------------------------19--17--19-----19---19---19----19----19----19---17-|
|-----------------------------------------------------------------------------------------------------------------|
|-----------------------------------------------------------------------------------------------------------------|

DRUMS COME IN      
Comments