Betrayer - Tribulation Chords & Tabs

 

Tribulation Chords & Tabs

Betrayer Chords & Tabs

Version: 1 Type: Tab 0 ratings
1 star 2 stars 3 stars 4 stars 5 stars
comments

Tribulation Tab

   
Betrayer - Tribulation Tab

Tune ½ Step Down 

Intro Solo:
b= bend
r= release
h= hammer on
p= pull off
~= vibrato,(squeel)
/= slide front wards
= slide backwards
= harmonic
p.m.= palm mute

Guitar Intro: (Reminder-Tune Down ½ step)

E---------------------------------------------------------------
B---------------------------------------------------------------
G---------------------------------------------------------------
D---------------------------------------------------------------
A-2------------------------3-3--2------------------------3-3—-2-
E-0-0-0-0-0--000-000-000-0-1-1--0-0-0-0-0--000-000-000-0-1-1--0-

E------------------------------------------------------------|
B------------------------------------------------------------|
G------------------------------------------------------------|
D------------------------------------------------------3-----|
A------------------------3-3--2------------------------1-3--2|
E-0-0-0-0--000-000-000-0-1-1--0-0-0-0-0--000-000-000-0---1--0|


REPEAT: 3X

While listening to the cd follow the palm mutes as you listen.
E-----------------------------|---------------------------------|
B-----------------------------|---------------------------------|
G-----------------------------|---------------------------------|
D-----------------------------|----------------------------2-3~-|
A-2------------------------3-3|-2--------------------2-3-5------|
E-0-0-0-0-0--000-000-000-0-1-1|-0-0-0-0-0-0-0--2-3-5------------|
   
E----------------------------------------------------------------
B-------------------------------------------------------------~--
G-------------------------------------------------------------
D-9------9------9------9-----10-7--9------9------9------9--------
A-7------7------7------7------8-5--7------7------7------7--------
E---0000---0000---0000---0000---------0000---0000---0000---------


E----------------------------------------------------------------
B----------------------------------------------------------------
G----------------------------------------------------------------
D-9------9------9------9-----10-7--9------9------9/--------------
A-7------7------7------7------8-5--7------7------7/----2h3p2h3---
E---0000---0000---0000---0000---------0000---0000----------------

E-------------|--------------------------------------------------
B-------------|--------------------------------------------------
G---------5-4~|--------------------------------------------------
D-4h5P4h5-----|-9------9------9------9-----10-7--9------9--------
A-------------|-7------7------7------7------8-5--7------7--------
E-------------|---0000---0000---0000---0000---------0000---0000--

E-----------------0----------------------------------------------
B-----------------0----------------------------------------------
G----------------------------------------------------------------
D-9------9-----------9------9------9------9------10-7--9------9--
A-7------7----10-----7------7------7------7-------8-5--7------7--
E---0000---00--8-------0000---0000---0000---0000----------0000---

			       |Repeat these parts 2X			    |	
E----------------------|-------------2---------------2----------|
B----------------------|------0-----0---------0-----0-----------|
G----------------------|-----0-0---0---------0-0---0------------|
D------9------9------5-|-4--5-----4------4--5-----4-------------|
A------7------7------3-|-2---------------2----------------------|
E-0000---0000---0000---|----------------------------------------|



E----------------------------------------------------------------
B----------------------------------------------------------------
G----------------------------------------------------------------
D----------------------------------------------------------------
A-5----5----5----5----5----5-----5-5/-9----9----9----9----9----9-
E-3-33-3-33-3-33-3-33-3-33-3-33--3-3/-7-77-7-77-7-77-7-77-7-77-7-

E----------------------------------------------------------------
B----------------------------------------------------------------
G----------------------------------------------------------------
D---------12------12------12------12------12------12------12-12--
A----9-9--10-1010-10-1010-10-1010-10-1010-10-1010-10-1010-10-10--
E-77-7-7---------------------------------------------------------

E------------------------------------------|
B------------------------------------------|
G-11----11----11----11----11----11----11-11|
D--9-99--9-99--9-99--9-99--9-99--9-99--9--9|
A------------------------------------------|
E------------------------------------------|

E----------------------------------------------------------------
B----------------------------------------------------------------
G-----4-------4-----------4----------------------------------
D-2-4---4-2-5---5-4-2-4-5---5-4--5---5---4h5-----5---4h5-----
A--------------------------------3-3---3-----3-3---3---------
E----------------------------------------------------------------

E----------------------------------------------------------------
B----------------------------------------------------------------
G----------------------------------------------------------------
D----5-----------------------------------------------------7---7-
A-33----5----5------5------5------5----5/6-7---9---9----9--5-5--
E-------3—-3---3-33---3-33---3-33---3—-3/4-5---7-7---77---------
[ Tab from: http://www.guitartabs.cc/tabs/b/betrayer/tribulation_tab.html ]
E-----|----------------------------------------------------------
B-----|----------------------------------------------------------
G-----|-4---4-------4-----------4--------------------------------
D----7|-2-4---4-2-5---5-4-2-4-5---5-4--5---5---4h5-----5---4h5---
A-55--|--------------------------------3-3---3-----3-3---3-------
E-----|----------------------------------------------------------

E----------------------------------------------------------------
B----------------------------------------------------------------
G----------------------------------------------------------------
D----5----------------------------------------------------7---7--
A-33----5---5------5------5------5----5/6-7---9---9----9--5-5----
E-------3-3---3-33---3-33---3-33---3—-3/4-5---7-7---77-----------
	  
Solo:# 1
 	b	 b		 b 			     b	  b	    b
E------|--------------------10(12)-/-12--14-15—-17(19)--17(19)-17
B------|--10(12)-10(12)--8---------------------------------------
G------|---------------------------------------------------------
D------|---------------------------------------------------------
A-55—7~|---------------------------------------------------------
E------|---------------------------------------------------------

Slowly release bends
	 b	   b      b     b       b
E-(19-17(19)-17(19)-17(19)-17(19)-17(19)--17--15-14-12-14-15-14-
B----------------------------------------------------------------
G----------------------------------------------------------------
D----------------------------------------------------------------
A----------------------------------------------------------------
E----------------------------------------------------------------

E-12-------------------------------------------------------------
B----15-13-12-------------------------------10----12-10h12p10----
G-------------14-12-11--9-9--11--9-9--12--9----9--------------12-
D----------------------------------------------------------------
A----------------------------------------------------------------
E----------------------------------------------------------------


E----------------------------------------------------------------
B---------------------------------------------------12—10h12p10--
G-11-9---9------11--------11-------11------12--14----------------
D------10-10-12-----10h12----12--12--12-12---12--12--------------
A----------------------------------------------------------------
E----------------------------------------------------------------

E-------------------------------------14-15-/////|
B-------------------------------------15-17-/////|
G-12--11-9-11-12--11-12-14--12-14-16-------------|
D------------------------------------------------|
A------------------------------------------------|
E------------------------------------------------|

Line with Bass:3X
E-------------------------|--------------------------------------
B-------------------------|--------------------------------------
G-------------------------|----------------------------------5---
D--------5-7---------5-4-4|-------5-7---------5-4h5p4------5--5--
A-777-77--7-7--777-77---5-|-777-77-7-7--777-77--------7-5--3-----
E-------------------------|--------------------------------------
		Repeat: 3 more times
E-----|------------------------|---------------------------------
B-----|------------------------|---------------------------------
G---7-|------------------------|---------------------------------
D-7—-7|-------5-7---------5-4-4|-------5-7----------5-4h5p4------
A-5---|-777-77-7-7-777-77----5-|-777-77-7-7--777-77---------7-5--
E-----|------------------------|---------------------------------
			Solo:# 2;figure out the backing solo yourselves
E----------|-----------------------------------------------------
B----------|-5---5-7-8-7--7-8-10--12/-17----12-13-12h13p12-------
G---5-----7|----------------------------------------------14-12--
D-5--5--7—7|-----------------------------------------------------
A-3-----5--|-----------------------------------------------------
E----------|-----------------------------------------------------

E---------------15p12-15p12-15p12-15p12-15p12-15p12-15p12-15p12--
B----------12----------------------------------------------------
G-11-12-14-------------------------------------------------------
D----------------------------------------------------------------
A----------------------------------------------------------------
E----------------------------------------------------------------

E-14p11-14p11-14p11—13p10-13p10-13p10—14p11-14p11—-15p12-15p12---
B----------------------------------------------------------------
G----------------------------------------------------------------
D----------------------------------------------------------------
A----------------------------------------------------------------
E----------------------------------------------------------------


E-15p12-15p12-15p12-15p12-15p12-15p12---///--12~~~~~--fade—out---
B----------------------------------------------------------------
G---------------------------------------------------------------|
D---------------------------------------------------------------|
A---------------------------------------------------------------|
E---------------------------------------------------------------|

I put as much as I can without driving myself mad. It took me about two weeks 
since I was to lazy to continue it. But look I got it done and now all the 
Betrayer fans including myself can enjoy this great song.

Here is the harmonies to the bass line, I forgot it.

E----------------------------------------------------------------
B------------------------|---------------------------------------
G-------4-7---------4-2-2|-------4-7----------4-2h4p2------------
D-555-55-5-5--555-55---4-|-555-55-5-5--555-55---------5-4--3-----
A------------------------|---------------------------------5-----
E------------------------|---------------------------------------   

Any compliments, suggestions, and corrections, email me at 

ozzfest1000@hotmail.com
Comments