Betrayer - Rusted Icons Chords & Tabs

 

Rusted Icons Chords & Tabs

Betrayer Chords & Tabs

Version: 1 Type: Tab 0 ratings
1 star 2 stars 3 stars 4 stars 5 stars
comments

Rusted Icons Tab

   
Betrayer - Rusted Icons Guitar Tab

This song is from a Metal band from Windsor Ontario. They sound similar to Megadeth, 
Early Metallica and Iron Maiden. This is an excellent song as well as an excellent album.
You can download the song @ www.betrayer.ca

Guitar: Tune 1/2 Step Down (Eb / D#)

Intro Solo:
b=bend
r=release
h=hammer on
p=pull off
>=slide
~=vibrato

Bass Intro: (Tune Down 1/2 Step, Drop D)
G---------------------------------------------------------------------
D---------------------------------------------------------------------
A-5-----5-----5---7-----8-----7-----1-----1-----1---3-----7-----3-----
E---0-0---0-0---0---0-0---0-0---0-0---0-0---0-0---0---0-0---0-0-------

G---------------------------------------------------------------------
D---------------------------------------------------------------------
A-5-----5-----5---7-----8-----7-----8-----8-----8---10-----10-----8-7-
E---0-0---0-0---0---0-0---0-0---0-0---0-0---0-0---0----0-0----0-0-----

G---------------------------------------------------------------------
D---------------------------------------------------------------------
A-5-----5-----5---3-----3-----3---2-----2-----2---3-----3-----1-3-----
E---0-0---0-0---0---0-0---0-0---0---0-0---0-0---0---0-0---0-0---------

G---------------------------------------------------------------------|
D---------------------------------------------------------------------|
A-5-----5-----5---3-----3-----3---7----7------7---8-----8-----7-8-----|
E---0-0---0-0---0---0-0---0-0---0---0-0---0-0---0---0-0---0-0---------|
[ Tab from: http://www.guitartabs.cc/tabs/b/betrayer/rusted_icons_tab.html ]
Intro Solo:
    Sweep
e---5^------------------------------------20 b(full)r-17-------------------
B--6/--6-5-6---------------------17-18-20----------------18----------------
G-7/---------7---7b(full)r-7~-17---------------------------19~----19-21----
D--------------7-----------------------------------------------19-------19-
A--------------------------------------------------------------------------
E--------------------------------------------------------------------------
-
e-----------------------------------------------------------------------------
B-21-18-15-17-13-15-11-13-10-11-11----10----8---6---5---8-6-5-----------------
G----------------------------------12----10---9---7---7-------7~-9-10~--------
D-----------------------------------------------------------------------------
A-----------------------------------------------------------------------------
E-----------------------------------------------------------------------------

e----------------15b(full)-15-12-13--13p10----15p10----13p10------------------
B-11>13-11-10-11---------------------------10-------10-------13p10------------
G------------------------------------------------------------------12p9-10----
D--------------------------------------------------------------------------12-
A-----------------------------------------------------------------------------
E-----------------------------------------------------------------------------

e----------------------------------15h17p15-13h15p13-12h13p13-10h12p10-8h10p8-
B-----------------------------------------------------------------------------
G------------7-9------------7-10----------------------------------------------
D-----5>7-10---------5>7-10---------------------------------------------------
A-5-8------------5-8----------------------------------------------------------
E-----------------------------------------------------------------------------

e-7h8p7-5---------------------|
B-----------5-----------------|
G-------------5---5---------7-|
D---------------7---7---5-----|
A---------------------8---7---|
E-----------------------------|

Verse:
e-------------------------|	For the Next Part Arpegdiate: 	---------
B-10-10-12-13-------------|					---------		
G-------------10-10-12-10-|					-9-9-5-7-
D-------------------------|					-9-9-5-7-
A-------------------------|					-7-7-3-5-
E-------------------------|					---------

Pre Chorus:

Palm Mute open A and chug
e---------------------|-------------------|
B---------------------|-------------------|
G---------------------|-------------------|
D-2---2---2---2-----5-|-----------2///-5--|
A-0//-0//-0//-0//-5-3-|-3///-5///-0///-3*-| *replace note with (G-9)
E-----------------3---|-1///-3///---------|  and squeal on fourth time.
Repeat 4X 		   Repeat 4X

-I am pretty sure the Intro solo is correct (or very close)
-The 2nd part of the Verse is only a guess of what he plays,
I can tell he's playing an E C and D but it's hard to hear
how Jeff plays it.
-The Pre Chorus should be correct as well.
Comments