Beth Gibbons - Resolve Chords & Tabs

 

Resolve Chords & Tabs

Beth Gibbons Chords & Tabs

Version: 1 Type: Tab 0 ratings
1 star 2 stars 3 stars 4 stars 5 stars
comments

Resolve Tab

Beth Gibbons & Rusti Man
Resolve
Album: Out of Season (the first, but hopefully not the last one)

there is one main pattern played nearly the hole song basing on a Cadd9 chord (I think
it is called this way) and a variation of it. so it?s perfect for lazy guitar players.
I don?t think that all this is absolutly correct, but for me it sounds ok. in case of
corrections etc. please let me know. Daniel wuttej |libadani@yahoo.de.

main pattern.
|-----------------------------------------------|
|---------3---------------3---------------------|
|-------0---0-----------0---0-------------------|
|-----2-------2---2---0-------0---0-------------|
|---3-----------3---3-----------3---------------|
|-----------------------------------------------|

time rolls as days go by
and now I?ve figured that I ain?t gonna last
summer skies are leaving me behind

so resolve your loving said all
I?ll be lost when you?re gone
blind me from keep
blind me

times told as days go by
I still ponder this old question why
but now I know there?s no time to decide

so resolve your loving said all
I?ll be lost when you?re gone
blind me from keep
blind me

[ Tab from: http://www.guitartabs.cc/tabs/b/beth_gibbons/resolve_tab.html ]
|--------------------------------------------------------------------|
|---------3---------------3---------------3---------------3----------|
|-------0---0-----------0---0-----------2---2-----------2---2--------|
|-----0-------0---0---2-------2---2---2-------2---2---2--------2---2-|
|---2-----------2---3-----------3---0-----------0---0------------0---|
|--------------------------------------------------------------------|

       and daylight knows     how my eyes have tired

|---------------------------------------------------|
|---------3---------------3---------------3---------|
|-------0---0-----------0---0-----------2---2-------|
|-----0-------0---0---2-------2---2---2-------2---2-|
|---2-----------2---3-----------3---0-----------0---|
|---------------------------------------------------|

         like the circles       life evermore will ...

|-------------------------------------------------------------------|
|---------3--------------3---------------3---------------3----------|
|-----------3--------------3-----------2---2-----------2---2--------|
|-------3-----3---3----3-----3---3---2-------2---2---2--------2---2-|
|-----5--------------5-------------0-----------0---0------------0---|
|---6-----------6--6-----------6------------------------------------|

 ...bear
[back to main pattern]

so resolve your loving said all
I?ll be lost when you?re gone
blind me from keep
blind me
Comments