Beta Band - I Know Chords & Tabs

 

I Know Chords & Tabs

Beta Band Chords & Tabs

Version: 1 Type: Tab 0 ratings
1 star 2 stars 3 stars 4 stars 5 stars
comments

I Know Tab

Intro bass line

e--------------------------------
b--------------------------------
g--------------------------------
D--------------------------------
A--------4-----6--7-6------------
E--2-----------7-----------------

This is repeated throughout the song,
with a variation on it halfway through
which I haven't sussed out yet.

Intro x 4, and then: - 

e--2---2---2---2---5-3-2---------
b--2---2---2---2-----------------
g--3---3---3---3-----------------
D--4---4---4---4-----------------
A--4---4---4---4-----------------
E--2---2---2---2-----------------
[ Tab from: http://www.guitartabs.cc/tabs/b/beta_band/i_know_tab.html ]
e--2---5-3-2----------------------
b--2------------------------------
g--3------------Repeated through--
D--4------------most of song------
A--4------------------------------
E--2------------------------------

Somewhere in the song, there's a sort of 
solo that goes like this:

e-17-17-17-17-17-17-17--17-14-12-9---9-9-9-9/--------------- 
b---------------------------------
g---------------------------------
D---------------------------------
A---------------------------------
E---------------------------------

Can't work out the rest as yet, but will try 
as soon as possible to do so.

Any comments, corrections, expansions,etc. 
send to richard.bell77@ntlworld.com

Comments