Berzerker - Slit Down Chords & Tabs

 

Slit Down Chords & Tabs

Berzerker Chords & Tabs

Version: 1 Type: Bass Tab 0 ratings
1 star 2 stars 3 stars 4 stars 5 stars
comments

Slit Down Bass Tab

   
  4/4
    Bass a tuned
    S S S S S S S S S S S S S S S S   S S S S S S S S S S S S S S S S  3x
||o---------------------------------|---------------------------------o||
||----------------------------------|----------------------------------||
||----------------------------------|----------------------------------||
||o-0-0-0-0-0-0-4-4-3-3-3-3-4-4-3-3-|-0-0-4-4-3-3-4-4-6-6-4-4-3-3-4-4-o||
||----------------------------------|----------------------------------||


                                                         ~~~
  S S S S S S S S S S S S S S S S   S S S S S S S S e e  Q
|---------------------------------|----------------------------|
|---------------------------------|----------------------------|
|---------------------------------|---------------------[5]----|
|-0-0-0-0-0-0-4-4-3-3-3-3-4-4-3-3-|-0-0-4-4-3-3-4-4-7-4--------|
|---------------------------------|----------------------------|


    E E E  E  E  E  E E   E E E  E E E  E E
||o---------------------|-------------------|
||----------------------|-------------------|
||---------9--8--8------|--------8-7-7------|
||o-7-7-7----------10-7-|-6-6-6---------9-6-|
||----------------------|-------------------|



                       1.,2.,3.               4.
  E E E  E  E  E  E E   E E E  E E  E  E E  3x E E E  E E E Q
|---------------------|--------------------o||----------------|
|---------------------|---------------------||----------------|
|--------9--8--8------|--------8-7----------||--------8-7-----|
|-7-7-7----------10-7-|-6-6-6-------9--8-6-o||-6-6-6----------|
|---------------------|---------------------||----------------|

[ Tab from: http://www.guitartabs.cc/tabs/b/berzerker/slit_down_btab.html ]
    E E E E E E  E E   E E E E E E E E
||o------------------|-----------------|
||-------------------|-----------------|
||--------9-8-8------|-------8-7-7-----|
||o-7-7-7-------10-7-|-6-6-6-------9-6-|
||-------------------|-----------------|


                    1.                   2.
  E E E E E E  E E   E E E E E E E E     E E  H.
|------------------|-----------------o||------------|
|------------------|------------------||------------|
|-------9-8-8------|-------8-7--------||------------|
|-7-7-7-------10-7-|-6-6-6-----9-8-6-o||-6----------|
|------------------|------------------||------------|

    S S S S S S S S S S S S S S S S   S S S S S S S S S S S S S S S S   8x
||o---------------------------------|----------------------------------o||
||----------------------------------|-----------------------------------||
||--6-6-6-6-6-6-6-6-6-6-6-6-6-6-----|-----------------------------------||
||o-----------------------------7-7-|-6-6-6-6-7-7-6-6-4-4-4-4-5-5-5-5--o||
||----------------------------------|-----------------------------------||


    E E E E E E  E E   E E E E E E E E
||o------------------|-----------------|
||-------------------|-----------------|
||--------9-8-8------|-------8-7-7-----|
||o-7-7-7-------10-7-|-6-6-6-------9-6-|
||-------------------|-----------------|



                    1.,2.,3.            4.
  E E E E E E  E E   E E E E E E E E  3x E E E E E E Q
|------------------|-----------------o||---------------*|
|------------------|------------------||---------------*|
|-------9-8-8------|-------8-7--------||-------8-7-----*|
|-7-7-7-------10-7-|-6-6-6-----9-8-6-o||-6-6-6---------*|
|------------------|------------------||---------------*|
Comments