Berzerker - Last Mistake Chords & Tabs

 

Last Mistake Chords & Tabs

Berzerker Chords & Tabs

Version: 1 Type: Bass Tab 0 ratings
1 star 2 stars 3 stars 4 stars 5 stars
comments

Last Mistake Bass Tab

bass A tuned

Riff 1
|----------------------------------------------------------------||
|----------------------------------------------------------------||
|-------------------5p-------------------------------------5----6||
|-3p----6p----------------6p----3p----6-5-----6-6----------------||
|-------------4p---------------------------44--------4p----------||

Riff 2
|-------------------------------------------------------------|
|-------------------------------------------------------------|
|-------------------------------------------------------------|
|----55-------------55------------55--------------------------|
|-33----66--55--33-----55--66--33-----66--55----55--66--55----|
|--------------------------------------------33---------------|
 


Riff 3 slow           fast
|-----------------|   |----------------|   
|-----------------|   |----------------|   
|---5-------5-----|1x |---5-------5----|4x 
|-3---6-5-3---5-6-|   |-3---6-5-3---5-6|   
|-----------------|   |----------------|   

|-------------------|
|-------------------|
|---5---------------|1x
|-3---6-5---5-6-5---|
|---------3---------|
 
Riff 4*tremolo
|---------------------------------------------------------------------------
|---------------------------------------------------------------------------
|-----------------------9----------9----9-----------------------9-----------
|-7--9-10---9-7---9-10----10-12-7----10---9-10-12-10--7---12-10---10-12-7---
|---------------------------------------------------------------------------
  
Riff 4 cont'd *tremolo
 --------------------------------------------------------------|
 --------------------------------------------------------------|
 -------------------------------------------------9------------|
 -10-12-10-9-10-7-10-12-10-9-7-10-12-10-9-10-7-10---10-12-10---|
 --------------------------------------------------------------|
  
Riff 5
|------------------------------------------------------------|
|------------------------------------------------------------|
|------------------------------------------------------------|2x's
|---------------------------------------------------2---1----|
|-0-2-3-5-3-2-5--0-2-3-5-3-2---0-2-3-5-3-2-5--0-2-3---3---2--|
[ Tab from: http://www.guitartabs.cc/tabs/b/berzerker/last_mistake_btab.html ]
Riff 6  *tremolo          x3
|---------------------------|---------------------| 
|---------------------------|---------------------|
|---------------------------|-----9----10---------|1x's
|7-10-12-10-12-7-10-12-10-9-|7-10---10----12-10-9-|
|---------------------------|---------------------|
 
Riff 7
|-------------------------|     |-------------------------|
|-------------------------|     |-------------------------|
|------44----------77-----|3x's |-------44------------77--|x1
|---55----44----55----77--|     |----55----44------55-----|
|-55----------55----------|     |-55------------55--------|
             

Repeat Riff 2
Repeat Riff 3

Riff 8
|-------------------------------------------------------------------------------
|-------------------------------------------------------------------------------
|-------------------------------------------------------------------------------
|-------------------5---------5----5-------------------5------------------------
|-3--5-6--5-3--5-6----6-8--3----6----5--6-8--6-3--8--6---6-8--3--6-8-6-5-6----3-
                                                         . .     trem. pick
Riff 8 cont'd
 -----------------------------------------------------|
 -----------------------------------------------------|
 -----------------------------------------------------|
 -----------5---------------5----5--------------------|
 -6-8-6-5------6-8-6-5-6-------6---6-8-6--------------|
 trem pick     trem pick       trem pick
                
*tremolo		x3          x1
|-----------------|----------------|
|-----------------|----------------|
|-----------------|-----9----------|
|7-10-12-10-9-10-7|7-10---10-12-10-|
|-----------------|----------------|

Riff 5
|------------------------------------------------------------|
|------------------------------------------------------------|
|------------------------------------------------------------|2x's
|---------------------------------------------------2---1----|
|-0-2-3-5-3-2-5--0-2-3-5-3-2---0-2-3-5-3-2-5--0-2-3---3---2--|

Riff 6  *tremolo          x3
|---------------------------|---------------------| 
|---------------------------|---------------------|
|---------------------------|-----9----10---------|1x's
|7-10-12-10-12-7-10-12-10-9-|7-10---10----12-10-9-|
|---------------------------|---------------------|
 
Riff 7
|-------------------------|     |-----------------------------|
|-------------------------|     |-----------------------------|
|------44----------77-----|3x's |-------44------------77------|x1
|---55----44----55----77--|     |----55----44------55----7777-|
|-55----------55----------|     |-55------------55------------|
Comments