Berzerker - Forever Chords & Tabs

 

Forever Chords & Tabs

Berzerker Chords & Tabs

Version: 1 Type: Tab 1 rating
1 star 2 stars 3 stars 4 stars 5 stars
comments

Forever Tab

   
FOREVER
The Berzerker
(From the 2000 Album THE BERZERKER)
tabbed by jesta_187

this is a ridiculously heavy song. if you havent heard of the 
berzerker (and you probably havent)then check them out. theyre mad!
and theyre samples are the coolest.


Gtr I (A D G C E A) - 'Rhythm'

4/4
    Gtrs I, II
    W          W          W          H.    E +E
||-----------|----------|----------|--------------|
||o----------|----------|----------|--------------|
||-----------|-7--------|----------|-6------------|
||--4--------|-7--------|-7--------|-6-----5-(5)s=|
||o-4--------|-5--------|-7--------|-4-----5-(5)s=|
||--2--------|----------|-5--------|-------3-(3)s=|


     PM----|
  Q  Q  Q  Q    H.     Q      H.     Q    H.      Q
|-------------|------------|------------|-------------||
|-------------|------------|------------|------------o||
|-------------|-7------7---|------------|-6-----------||
|-4-----------|-7------7---|--7------7--|-6-------5---||
|-4--4--4--4--|-5------5---|--7------7--|-4-------5--o||
|-2--2--2--2--|------------|--5------5--|---------3---||


    Q  S S S S S S S S S S S S   S S S S S S S S S S S S S S S S
||-----------------------------|------------------------------------|
||o----------------------------|------------------------------------|
||-------------6-6-6-6---------|---------4-4-4-4--------------------|
||--4--4-4-4-4---------7-7-7-7-|-2-2-2-2---------5-5-5-5-0-0-0-0----|
||o-4--------------------------|------------------------------------|
||--2--------------------------|------------------------------------|


                                                             PM
  Q  S S S S S S S S S S S S   S S S S S S S S S S S S   E   E
|----------------------------|-----------------------------------|
|----------------------------|-----------------------------------|
|------------6-6-6-6-9-9-9-9-|-7-7-7-7---------------------------|
|-4--4-4-4-4-----------------|---------5-5-5-5-9-9-9-9---5-------|
|-4--------------------------|---------------------------5-------|
|-2--------------------------|---------------------------3---0---|


  Q  S S S S S S S S S S S S   S S S S S S S S S S S S S S S S
|----------------------------|------------------------------------|
|----------------------------|------------------------------------|
|------------6-6-6-6---------|---------4-4-4-4--------------------|
|-4--4-4-4-4---------7-7-7-7-|-2-2-2-2---------5-5-5-5-0-0-0-0----|
|-4--------------------------|------------------------------------|
|-2--------------------------|------------------------------------|


                1.,2.                  3.
  H    +Q   Q    H    +Q   E   +E      W
|--------------|--------------------||------|
|--------------|-------------------o||------|
|-2----(2)--2--|-6----(6)-----------||-6----|
|-2----(2)--2--|-6----(6)--8b9r(8)--||-6----|
|-0----(0)--0--|-4----(4)--8b9r(8)-o||-4----|
|--------------|-----------6b7r(6)--||------|


    T   T   T   T   T   T   T   T     T   T   T   T   T   T   T   T
    S S S S S S S S S S S S S S S S   S S S S S S S S S S S S S S S S
||----------------------------------|----------------------------------|
||o---------------------------------|----------------------------------|
||----------------------------------|----------------------------------|
||----------------------------------|----------------------------------|
||o-9p6-9p6-9p6-9p6-9p6-9p6-9p6-9p6-|-9p6-9p6-9p6-9p6-9p6-9p6-9p6-9p6--|
||----------------------------------|----------------------------------|


  T   T   T   T   T   T   T   T     T   T   T   T   T   T   T   T
  S S S S S S S S S S S S S S S S   S S S S S S S S S S S S S S S S
|---------------------------------|---------------------------------|
|---------------------------------|---------------------------------|
|---------------------------------|---------------------------------|
|-8p5-8p5-8p5-8p5-8p5-8p5-8p5-8p5-|-7p4-7p4-7p4-7p4-7p4-7p4-7p4-7p4-|
|---------------------------------|---------------------------------|
|---------------------------------|---------------------------------|


  T   T   T   T   T   T   T   T     T   T   T   T   T   T   T   T
  S S S S S S S S S S S S S S S S   S S S S S S S S S S S S S S S S
|---------------------------------|---------------------------------|
|---------------------------------|---------------------------------|
|---------------------------------|---------------------------------|
|---------------------------------|---------------------------------|
|-9p6-9p6-9p6-9p6-9p6-9p6-9p6-9p6-|-9p6-9p6-9p6-9p6-9p6-9p6-9p6-9p6-|
|---------------------------------|---------------------------------|


   T    T    T    T    T    T    T    T
   S S  S S  S S  S S  S S  S S  S S  S S
|-----------------------------------------|
|-----------------------------------------|
|-----------------------------------------|
|-10p6-10p6-10p6-10p6-10p6-10p6-10p6-10p6-|
|-----------------------------------------|
|-----------------------------------------|


  1.
  T   T   T   T   T   T   T   T
  S S S S S S S S S S S S S S S S
|------------------------------------||
|-----------------------------------o||
|------------------------------------||
|------------------------------------||
|-7p4-7p4-7p4-7p4-7p4-7p4-7p4-7p4---o||
|------------------------------------||


  2.
  T   T   T   T
  S S S S S S S S E E Q      Q  S S S S S S S S S S S S
|------------------------||-----------------------------|
|------------------------||o----------------------------|
|------------------------||-------------6-6-6-6---------|
|------------------------||--4--4-4-4-4---------7-7-7-7-|
|-7p4-7p4-7p4-7p4-7------||o-4--------------------------|
|------------------------||--2--------------------------|


  S S S S S S S S S S S S S S S S
|---------------------------------|
|---------------------------------|
|---------4-4-4-4-----------------|
|-2-2-2-2---------5-5-5-5-0-0-0-0-|
|---------------------------------|
|---------------------------------|


                                                         PM
  Q  S S S S S S S S S S S S   S S S S S S S S S S S S E E
|----------------------------|--------------------------------|
|----------------------------|--------------------------------|
|------------6-6-6-6-9-9-9-9-|-7-7-7-7------------------------|
|-4--4-4-4-4-----------------|---------5-5-5-5-9-9-9-9-5------|
|-4--------------------------|-------------------------5------|
|-2--------------------------|-------------------------3-0----|


  Q  S S S S S S S S S S S S   S S S S S S S S S S S S S S S S
|----------------------------|------------------------------------|
|----------------------------|------------------------------------|
|------------6-6-6-6---------|---------4-4-4-4--------------------|
|-4--4-4-4-4---------7-7-7-7-|-2-2-2-2---------5-5-5-5-0-0-0-0----|
|-4--------------------------|------------------------------------|
|-2--------------------------|------------------------------------|


                 1.                    2.
  H    +Q   Q    H    +Q   E   +E      W          +W
|--------------|--------------------||----------|--------|
|--------------|-------------------o||----------|--------|
|-2----(2)--2--|-6----(6)-----------||-6--------|-(6)----|
|-2----(2)--2--|-6----(6)--8b9r(8)--||-6--------|-(6)----|
|-0----(0)--0--|-4----(4)--8b9r(8)-o||-4--------|-(4)----|
|--------------|-----------6b7r(6)--||----------|--------|

[ Tab from: http://www.guitartabs.cc/tabs/b/berzerker/forever_tab.html ]
                       PM--|                         PM------|
    H    Q.   E   +Q.  E E E Q    H    Q.   E   +E   E E E E E Q
||--------------|---------------|-------------|---------------------||
||o-------------|---------------|-------------|--------------------o||
||-------6------|---------------|------7------|---------------------||
||--4----6----5-|-(5)-----------|-4----7----7-|-(7)-----------------||
||o-4----4----5-|-(5)--5-5-5-5--|-4----5----7-|-(7)--7-7-7-7-7-7---o||
||--2---------3-|-(3)--3-3-3-3--|-2---------5-|-(5)--5-5-5-5-5-5----||


    H    Q.   E   +W       H    Q.   E     +W      3x
||--------------|--------|--------------|----------||
||o-------------|--------|--------------|---------o||
||-------6------|--------|------7-------|----------||
||--4----6----5-|-(5)----|-4----7----7--|--(7)-----||
||o-4----4----5-|-(5)----|-4----5----7--|--(7)----o||
||--2---------3-|-(3)----|-2---------5--|--(5)-----||


           PM|         PM  PM       PM-----|     PM----|
  H.       E E   Q.    q E q    H.  E E    q  E  E E E E  E
|--------------|--------------|----------|------------------|
|--------------|--------------|----------|------------------|
|-7------------|--------------|-5--------|------------------|
|-7------------|-4\-----------|-5--------|------------------|
|-5--------7-5-|-4\----2---5--|-3---5-3--|-2-----5-3-5-2----|
|----------5-3-|-2\----0---3--|-----3-1--|-0-----3-1-3-0----|


    T   T   T   T   T   T   T   T     T   T   T   T   T   T   T   T
    S S S S S S S S S S S S S S S S   S S S S S S S S S S S S S S S S
||----------------------------------|----------------------------------|
||o---------------------------------|----------------------------------|
||----------------------------------|----------------------------------|
||----------------------------------|----------------------------------|
||o-9p6-9p6-9p6-9p6-9p6-9p6-9p6-9p6-|-9p6-9p6-9p6-9p6-9p6-9p6-9p6-9p6--|
||----------------------------------|----------------------------------|


  T   T   T   T   T   T   T   T     T   T   T   T   T   T   T   T
  S S S S S S S S S S S S S S S S   S S S S S S S S S S S S S S S S
|---------------------------------|-----------------------------------|
|---------------------------------|-----------------------------------|
|---------------------------------|-----------------------------------|
|-8p5-8p5-8p5-8p5-8p5-8p5-8p5-8p5-|-7p4-7p4-7p4-7p4-7p4-7p4-7p4-7p4---|
|---------------------------------|-----------------------------------|
|---------------------------------|-----------------------------------|


  T   T   T   T   T   T   T   T     T   T   T   T   T   T   T   T
  S S S S S S S S S S S S S S S S   S S S S S S S S S S S S S S S S
|---------------------------------|-----------------------------------|
|---------------------------------|-----------------------------------|
|---------------------------------|-----------------------------------|
|---------------------------------|-----------------------------------|
|-9p6-9p6-9p6-9p6-9p6-9p6-9p6-9p6-|-9p6-9p6-9p6-9p6-9p6-9p6-9p6-9p6---|
|---------------------------------|-----------------------------------|


   T    T    T    T    T    T    T    T
   S S  S S  S S  S S  S S  S S  S S  S S
|-----------------------------------------|
|-----------------------------------------|
|-----------------------------------------|
|-10p6-10p6-10p6-10p6-10p6-10p6-10p6-10p6-|
|-----------------------------------------|
|-----------------------------------------|


  1.
  T   T   T   T   T   T   T   T
  S S S S S S S S S S S S S S S S
|------------------------------------||
|-----------------------------------o||
|------------------------------------||
|------------------------------------||
|-7p4-7p4-7p4-7p4-7p4-7p4-7p4-7p4---o||
|------------------------------------||


  2.
  T   T   T   T   T
  S S S S S S S S Q  Q                          W
|--------------------------------------|-------------|
|--------------------------------------|-------------|
|--------------------------------------|-------------|
|--------------------------------------|-------------|
|-7p4-7p4-7p4-7p4-7--------------------|-------------|
|--------------------------------------|-------------|


    Q  S S S S S S S S S S S S   S S S S S S S S S S S S S S S S
||-----------------------------|------------------------------------|
||o----------------------------|------------------------------------|
||-------------6-6-6-6---------|---------4-4-4-4--------------------|
||--4--4-4-4-4---------7-7-7-7-|-2-2-2-2---------5-5-5-5-0-0-0-0----|
||o-4--------------------------|------------------------------------|
||--2--------------------------|------------------------------------|


  Q  S S S S S S S S S S S S   S S S S S S S S S S S S E E
|----------------------------|--------------------------------|
|----------------------------|--------------------------------|
|------------6-6-6-6-9-9-9-9-|-7-7-7-7------------------------|
|-4--4-4-4-4-----------------|---------5-5-5-5-9-9-9-9-5------|
|-4--------------------------|-------------------------5------|
|-2--------------------------|-------------------------3-0----|


  Q  S S S S S S S S S S S S   S S S S S S S S S S S S S S S S
|----------------------------|------------------------------------|
|----------------------------|------------------------------------|
|------------6-6-6-6---------|---------4-4-4-4--------------------|
|-4--4-4-4-4---------7-7-7-7-|-2-2-2-2---------5-5-5-5-0-0-0-0----|
|-4--------------------------|------------------------------------|
|-2--------------------------|------------------------------------|


                 1.                    2.
  H    +Q   Q    H    +Q   E   +E      W          +W
|--------------|--------------------||----------|--------*|
|--------------|-------------------o||----------|--------*|
|-2----(2)--2--|-6----(6)-----------||-6--------|-(6)----*|
|-2----(2)--2--|-6----(6)--8b9r(8)--||-6--------|-(6)----*|
|-0----(0)--0--|-4----(4)--8b9r(8)-o||-4--------|-(4)----*|
|--------------|-----------6b7r(6)--||----------|--------*|

and because the shouty screamy lyrics are impossble to 
understand, ive done them too. arent i nice

sample 'so im sitting here with a severed head in my hand, talking
to it, or looking at it and im about to go crazy literally im
about to go fly wheel loose and just fall apart.'

Always living on the line of what you think is right or wrong,
there was a time when even i could not bear to be alone,
needing someone or something that is not mine to call my own,
to have and hold,
severing the only line of trust that you once thought you had,
now that i can see past you i can start to be a man,
death to me seems no mistake for i have yet to hate,
so can you see my pain, can you feel my pain, can you see my...
this, is my world,
and i see, what you don't,
forever, wanting more,
life breathes, from our soul,
looking into bloodshot eyes mesmerized they can't look back,
slowly turning in my mind is the visions of your death,
finding truth amongst my lies but not accepting now i grow,
and gain control,
opening to inner sanctums that you do not understand,
having no respect for life and taking it with my bare hands,
always searching with contempt for ways to rid my pounding head,
from this place,

this, is my world,
and i see, what you don't,
forever, wanting more,
life breathes, from our souls. 



Comments