Berzerker - Disregard Chords & Tabs

 

Disregard Chords & Tabs

Berzerker Chords & Tabs

Version: 1 Type: Bass Tab 0 ratings
1 star 2 stars 3 stars 4 stars 5 stars
comments

Disregard Bass Tab

bass tuned a
Intro 
       x2     x2                    x4                         
|------|------|---------------------||
|------|------|---------------------||
|------|------|---------------------||
|-3----|-3(i)-|--3h4-3h4-3-3h6-3h6--||
|------|------|---------------------||


Pre Verse
|-----------------------------------------------------------------|
|-----------------------------------------------------------------|
|-----------------------------------------------------------------|
|----------------------------------------------------5-4-----7-6--|
|--------------------------------------------------2-----5-4-----7|

Verse 1
|-----------------------------------------------------------------|
|-----------------------------------------------------------------|
|-----------------------------------------------------------------|
|---5-4-----7-6-----5-4-----7-6-----5-4-----7-6-----5-4-----7-6---|
|-2-----5-4-----7-2-----5-4-----7-2-----5-4-----7-2-----5-4-----7-|

[ Tab from: http://www.guitartabs.cc/tabs/b/berzerker/disregard_btab.html ]
2nd Half Verse 1 PM all
|-----------------------------------------------------------------|
|-----------------------------------------------------------------|
|-----------------------------------------------------------------|
|---5-4-----7-6-----5-4-----7-6-----5-4-----7-6-----5-4-----7-6---|
|-2-----5-4-----7-2-----5-4-----7-2-----5-4-----7-2-----5-4-----7-|


High Pitched Verse
||---------------------------------------------------------------------------||
||---------------------------------------------------------------------------||
||---------------------------------------------------------------------------||
||--3h4-3h4-3-3h6-3h6-3h4-3h4-3-3h6-3h6-3h4-3h4-3-3h6-3h6-3h4-3h4-3-3h6-3h6--||
||---------------------------------------------------------------------------||


Bridge
||-----------------------------------------------------------||
||-----------------------------------------------------------||
||----5-------5-------5-------5-------5-------5--------------||
||--5---5---5---5---5---5---5---5---5---5---5---5------------||
||--------4-------4-------4-------4-------4-------4-3-3-3-4--||


Last Verse With Fill At End
|-------------------------------------------------------------------|
|-------------------------------------------------------------------|
|-------------------------------------------------------------------|
|---5-4-----7-6-----5-4-----7-6-----5-4-----7-6-----5-4-------------|
|-2-----5-4-----7-2-----5-4-----7-2-----5-4-----7-2-----5-5-3-3-3-2-|
Comments