Berzerker - Compromise Chords & Tabs

 

Compromise Chords & Tabs

Berzerker Chords & Tabs

Version: 1 Type: Tab 0 ratings
1 star 2 stars 3 stars 4 stars 5 stars
comments

Compromise Tab

   
Band:  The Berzerker
Album: Dissimulate
Song:  Compromise

Copyright (c)  Earache, 2002
Version 1 - 14/01/05

Transcribed By: Sam Parkinson
Email:        corporal_jigsore_quandary_666@hotmail.com


.  - palm mute           /  - slide up to
\  - slide down to       ~  - vibrato
h  - hammer on           b  - Bend
p  - pull off            Suffixes for bend
t  - tap                 f  - full bend    h - half bend
ph - pinched harmonic    q  - quarter bend t - tap bend
*  - see comment         ^  - Hold bend    r release bend
x  - Stuccatto           ~  - vibrato bend
;  - slight palm mute    () - ghost note, sustained note
"  - tremolo note        <> - Trill

Tuning A,D,G,C,E,A

Riff I

|---------------------------------------------------|
|---------------------------------------------------|
|---------------------------------------------------|
|-9-9999-7-10-9-9999-7"-5--9-9999-7-109-10"-9"-22-5-|
|-7-7777-5-8--7-7777----3--7-7777-5-8-7--------00-3-|
|---------------------------------------------------|
    ....        ....         ....              ..

Riff II

  E S S SS S S
|----------------------------| |---------------------------|
|----------------------------|o|---------------------------|
|---4-5-77-5-4-2-4-22-0-2-00-|3|---------------------------|
|-2--------------------------|3|-2"-5"-4"-0"-2-2"-5"-4"-0"-|
|----------------------------|o|---------------------------|
|----------------------------| |---------------------------|
[ Tab from: http://www.guitartabs.cc/tabs/b/berzerker/compromise_tab.html ]
Riff III
|p1.2.3.                      |end
|-----------------------------|--------|
|-----------------------------|--------|
|----------4-2------------4-2-|--------|
|--------5-4-2----------5-4-0-|-5-4-7--|
|-2-2222-5-2-0-4-444444-5-2-0-|-5-4-7--|
|-0-0000-3x-x--2-222222-3x-x--|-3x2x5--|

Riff IV

|--------------------------------------------------|
|--------------------------------------------------|
|----------2"--------------------------------------|
|-2"-5"-------4""-5"-------------------------------|
|-------2"-----------2"-0"-------2"-0"-------------|
|--------------------------0"-3"-------2"-3"-2"-5"-|
                           .  .  .  .  .  .  .  .

Riff V

Part 1
|---------------| |---------|
|---------------|o|---------|
|--10-10-9-7----|3|--9--107-|
|-7--7-------10-|3|-7-7-8-5-|
|---------------|o|---------|
|---------------| |---------|
  .  .              . .

Part 2
|---------------| |------------------|
|---------------|o|------------------|
|---------------|3|------------------|
|--10-10-9-7----|3|-9-10-12-10-9-7-9-|
|-7--7-------10-|o|------------------|
|---------------| |------------------|
  .  .

Part 3
|---------------------------------------------------|
|---------------------------------------------------|
|--10-10-9-7-----9-9-7-5----7-7-5-3-----------------|
|-7--7-------10-5-5------8-3-3------2-3-2-0-2-0-----|
|-----------------------------------------------3h5-|
  .  .          . .        . .

Part 4
|--------------------------------------------------------------|
|--------------------------------------------------------------|
|--------------------------------------------------------------|
|--10-10-9-7-----12-12-10-9------14--14-12-10-9-10-9-7-9-7-5h7-|
|-7--7-------10-9--9--------12-10--10--------------------------|
|--------------------------------------------------------------|
  .  .          .  .           .   .

Riff IV
Riff III
Riff II
End
Comments