Berzerker - Chronological Order Of Putrefaction Chords & Tabs

 

Chronological Order Of Putrefaction Chords & Tabs

Berzerker Chords & Tabs

Version: 1 Type: Bass Tab 0 ratings
1 star 2 stars 3 stars 4 stars 5 stars
comments

Chronological Order Of Putrefaction Bass Tab

   
Chronological order of putrefaction

bass tab tuned (A D G C E A) 
  Q=90

 4/4
  Wx12
|---------|
|---------|
|---------|
|---------|
|---------|


   
    W           +H      E E E E    W        H    H
||------------|------------------|--------|----------||
||o-----------|------------------|--------|---------o||
||------------|------------------|--------|----------||
||o-----------|------------------|--------|---------o||
||--2---------|-(2)-----2---1----|-0------|-3----5---||


  e E Q  H      W          W          W
|-------------|----------|----------|------|
|-------------|----------|----------|------|
|-------------|----------|----------|------|
|-------------|----------|----------|------|
|-2-----------|----------|----------|------|

[ Tab from: http://www.guitartabs.cc/tabs/b/berzerker/chronological_order_of_putrefaction_btab.html ]
    H.      e e   H   Q a Q   4x     Q S S E S S E Q   E. S S S S S E E Q
||--------------|-------------||-||------------------|--------------------|
||o-------------|------------o||-||o-----------------|--------------------|
||--------------|-------------||-||------------------|--------------------|
||o-------------|------------o||-||o-----------------|--------------------|
||--2-------2-1-|-0---3-2s3---||-||--2-2-2-2-2-2-5-3-|-2--2-2-2-2-2-2-6-5-|


  Q.   S S  S S E Q   Q.   Q.  Q   4x W          +W
|-------------------|--------------||----------|-----|
|-------------------|--------------||----------|-----|
|-------------------|-------------o||----------|-----|
|-------------------|--------------||----------|-----|
|-------------------|-------------o||----------|-----|
|-2----2-2--2-2-5-3-|-2----8---5---||-2--------|-(2)-|


  Wx4      W         +W         W       +W
|--------|---------|----------|-------|--------|
|--------|---------|----------|-------|--------|
|--------|---------|----------|-------|--------|
|--------|-9-------|-(9)------|-7-----|-(7)----|
|--------|---------|----------|-------|--------|


  W          +W          W         H     H        Wx8
|----------|-----------|-------|------------||----------*|
|----------|-----------|-------|------------||----------*|
|----------|-----------|-------|------------||----------*|
|-9--------|-(9)-------|-7-----|-/10---/12--||----------*|
|----------|-----------|-------|------------||----------*|
Comments