Berurier Noir - Porcherie Chords & Tabs

 

Porcherie Chords & Tabs

Berurier Noir Chords & Tabs

Version: 1 Type: Tab 0 ratings
1 star 2 stars 3 stars 4 stars 5 stars
comments

Porcherie Tab

Bérurier Noir
Porcherie
Concerto pour détraqués
Tablature mise sur ce site par Petit_Agité
1)----------------------------------|
2)----------------------------------|
3)----------------------------------|
4)----------------------------------|
5)8-8-------8-8-------8-8-------8-8-|
6)6-6-------6-6-------6-6-------6-6-|
  Porcherie!
[ Tab from: http://www.guitartabs.cc/tabs/b/berurier_noir/porcherie_tab.html ]
1)-----------------------------|
2)-----------------------------|
3)-----------------------------|
4)PM . .    . .    . .    .   .
5)   8-8-8--9-9-9--8-8--6-6-6-6-|
6)   6-6-6--7-7-7--6-6--4-4-4-4-|
      Le monde est une vraie porcherie

1)
2)
3)
4)PM .      .      .      . .
5)   9-9-9--9-9-9--9-9-9--9-10-|
6)   7-7-7--7-7-7--7-7-7--7-12-|
       Porcherie,porcherie

Commentaires:antichrist_1996@msn.com
Comments