Berurier Noir - Ainsi Squattent-ils Chords & Tabs

 

Ainsi Squattent-ils Chords & Tabs

Berurier Noir Chords & Tabs

Version: 1 Type: Tab 0 ratings
1 star 2 stars 3 stars 4 stars 5 stars
comments

Ainsi Squattent-ils Tab

   
BERURIER NOIR
AINSI SQUATTENT ILS 

------------------------------------
------------------------------------
-----10----10-----------------------
-10--10-9--10-----------------------
-10--8--9--8------------------------
-8------7---------------------------
 C   F  B  F
 

solo :
[ Tab from: http://www.guitartabs.cc/tabs/b/berurier_noir/ainsi_squattent_ils_tab.html ]
------------------------------------
------------------------------------
------------------------------------
-0--0-2-4-2-0-----0-----------------
--------------4-2---2---------------
------------------------------------ 2x

------------------------------------
------------------------------------
------------------------------------
------------------------------------
-0--0-3-5-2-------------------------
------------------------------------ 



PUNK'S NOT DEAD !!!!!!
Comments