Bert Jansch - Reynardine Chords & Tabs

 

Reynardine Chords & Tabs

Bert Jansch Chords & Tabs

Version: 1 Type: Tab 0 ratings
1 star 2 stars 3 stars 4 stars 5 stars
comments

Reynardine Tab

   
Tabbed by Jamie Phillips (jamiephillips22@hotmail.com)

Artist: Bert Jansch
Track title: Reynardine
Album: Rosemary Lane
Tuning: DADGBE (dropped D)

A Bert Jansch classic. There's some free time noodling at the start of the track which was a 
bit long winded to tab but it's pretty easy to figure out; besides which you'll probably want 
to put your own noodling in there instead. I think Bert detunes his guitar a half step on this 
track, it certianly makes the bends a bit easier anyway. He makes those bent notes warble, too, 
which I haven't represented here - as usual you'll need to work with the recording to get it 
exact. I think Bert used to sometimes literally lift the strings away from the fretboard with 
his right hand fingers and let them slap down to get that hard percussive sound he's noted for. 
This tune is in 4/4 but watch out for the odd bar of 6; I've added beat asterisks to these bars 
as a guide. He basically plays the same pattern from verse to verse and the instrumental break. 
There is also an ending which again is a little freer in time and easy to figure out if you 
want to include it. I haven't tabbed it here - maybe at a later date!

Rhythm: 4/4 with the odd bar of 6/4

E||-------------------|----------------------|----------------------|
B||-------------------|--3------3-------3----|----3-------3---------|
G||-------------------|---------0------------|----0-----------------|
D||-------------------|--4--------------4----|------------4---------|
A||-------------------|--0---------2----0----|-------2----0---------|
D||--------------0----|----------------------|-----------------0----|


 Verse:                                                                     
E----------------------|----------------------|-----------------------|
B--3------3-------3----|----------------------|-----------------------|
G---------0------------|----------------------|--2----------0---------|
D--4--------------4----|----2-------4----5----|--0------2p0------0----|
A--0---------2----0----|------------0----2----|-------------4---------|
D----------------------|-------5--------------|-----------------------|


   *    *    *    *    *    *
E--------------------------------|--------------------2-----|
B-----------------3------3-------|--------3-----------------|
G--4------4-------4------2-------|-----4-----4-----2-----2--|
D--0------0-------0---------4----|--5-----------4-----------|
A--------------------------------|--------------------------|
D--5---------5----5--------------|--------------------------|

[ Tab from: http://www.guitartabs.cc/tabs/b/bert_jansch/reynardine_tab.html ]
                                                                    
E--------3p-2--0---------|--------------------|---------------------|
B-----0-------------0----|--------------------|----------------0----|
G------------------------|--6b7----------6b7--|------7---r6---------|
D--2---------------------|--0-----------------|------0--------------|
A------------------------|--------------------|---------------------|
D------------------------|--5------------5----|---------------------|


   *    *     *    *    *    *                        
E---------------------------------|-------------------------|
B---------------------------------|-------------------------|
G--2----------0-------------------|-----------0-------------|
D--0------2p0-----/4------2p-0----|-----0h-2-----2p-0--2----|
A-------------4---/5--------------|--3-----------------3----|
D---------------------------------|-------------------------|


                                                
E---------------------|-------------------------|
B---------------------|-------------------------|
G---------------------|-----------0-------------|
D--0------------------|-----0h-2-----2p-0--2----|
A-/5--------0----2----|--3-----------------3----|
D---------------------|-------------------------|


                                                                     
E----------------------|--------------------|------------------------|
B----------------------|--------------------|---------0--------------|
G----------------------|--6b7----------6b7--|------6-----2p-0--------|
D--0--------------0----|--4------------4----|------------------4p-2--|
A--5------3-b4---------|--0------------0----|------------------------|
D------------5---------|--0------------0----|------------------------|


   *    *    *    *    *   *        *     *     *     *   *    *
E--------------------------------|----------------------------------|
B--------------------------------|--2--------2----------------------|
G--------------------------2h-4--|-----2h-4-----4p-2----------------|
D--5------5--5----5--------------|--------------------2--------2----|
A--2------2--2----2--------------|----------------------------------|
D--2------2--2----2--------------|----------------------------------|


                                                    
E----------------------|----------------------|----||
B-----------------3----|----3-------3---------|----||
G----------------------|----0-----------------|----||
D--2h---4---------4----|------------4---------|----||
A--0--------------0----|-------2----0---------|----||
D--0---------0---------|-----------------0----|----||

TAB guide:  h = hammer on , p = pull off

            / = slide in from below

            b = bend note up to next note, r = release note into next note.
Comments