Bert Jansch - High Emotion Chords & Tabs

 

High Emotion Chords & Tabs

Bert Jansch Chords & Tabs

Version: 1 Type: Tab 0 ratings
1 star 2 stars 3 stars 4 stars 5 stars
comments

High Emotion Tab

Artist: Bert Jansch
  Song: High Emotion

I'm not certain whether this is completely correct, but I think it's accurate 
enough to play and sing along to.

Jag är inte säker på att låten är helt rätt, men jag tycker att den är tillräkligt 
bra för att sjunga och spela till.


Standard tuning EADGBe.


------------------------------------------------------------------------------
--------3------------3-----------3-----------1-----------0-----1-----0--------
-----2-----2------2-----2-----2-----2-----0-----0-----------0-----0-----0-----
--0---------------------------------------------------0--------2-----0--------
---------------3-----------1-----------0--------------------------------------
---------------------------------------------------3------------------------3-
                                                                              

------------------------------------------------------------------------------
-----0-----1-----0------------------------------------------------------------
--------0-----0-----0---------------------------------------------------------
--0--------2-----0------------------------------------------------------------
------------------------------------------------------------------------------
------------------------------------------------------------------------------
                

------------------------------------------------------------------------------
-------3-----------3-----------3-----------1-----------0-----1-----0----------
----2-----2-----2-----2-----2-----2-----0-----0-----------0-----0-----0-------
-0--------------------------------------------------0--------2-----0----------
-------------3-----------1-----------0----------------------------------------
-------------------------------------------------3----------------------------
                                                                              

------------------------------------------------------------------------------
----------1-----------0--------3-----------3-----------0-----1-----0----------
-------0-----------0--------------0-----------0-----------0-----0-----0-------
----2-----------0-----------0-----------0-----------0--------2-----0----------
------------------------------------------------------------------------------
-3-----------3-----------1-----------1-----------3----------------------------
  
[ Tab from: http://www.guitartabs.cc/tabs/b/bert_jansch/high_emotion_tab.html ]
--------------------------------------------------------1---------------------
--------------------------------0-----------0-----------3--------------1------
-------0-----------0---------------0-----0-----0-----2-----2--------0---------
----5-----5-----4-----4------0--------0-----------0--------------2------------
-3-----------3------------------------------------------------3---------------
--------------------------3---------------------------------------------------
                                                                              

------------------------------------------------------------------------------
-------0-----1-----0-----------------------------------0-----------0----------
----------0-----0-----0--------0-----------0--------------0-----0-----0-------
----0--------2-----0--------5-----5-----4-----4-----0--------0----------------
-------------------------3-----------3----------------------------------------
-3-----------------------------------------------3----------------------------
                                                                              

--------1---------------------------------------------------------------------
--------3-----------------------0-----1-----0--------------0--------3---------
-----2-----2-----------2-----------0-----0-----0--------0--------0-----0------
--0-----------------3--------0--------2-----0--------0--------3---------------
-----------------3------------------------------------------------------------
--------------1-----------3-----------------------3---------------------------
                                                                              

------------------------------------------------------------------------------
--------1-----------0-----1-----0-----------3-----------3-----------0-----1---
-----0-----0-----------0-----0-----0-----------0-----------0-----------0------
--2--------------0--------2-----0--------0-----------0-----------0--------2---
------------------------------------------------------------------------------
--------------3-----------------------1-----------1-----------3---------------
                                                                              

------------------------------------------------------------------------------
----0-----------0-----1-----0-------------------------------------------------
-0-----0-----------0-----0-----0----------------------------------------------
----0--------0--------2-----0-------------------------------------------------
------------------------------------------------------------------------------
----------3-------------------------------------------------------------------
Comments