Berry Chuck - Jonny B Goode Chords & Tabs

 

Jonny B Goode Chords & Tabs

Berry Chuck Chords & Tabs

Version: 1 Type: Tab 1 rating
1 star 2 stars 3 stars 4 stars 5 stars
comments

Jonny B Goode Tab

jonny b goode
chuck berry
tabbed by: Aaron Satterfield

here is another way of this song
this is in standard tuning

  --------3/5-5-5-3/5-5-5-3/5-5-5--5-----------------------------
  ----5-7---5-5-5---5-5-5---5-5-5--5-8--7-5----------------------
  --6---------------------------------------5-6------------------
  ---------------------------------------------7-5--7-7-7-7-7-7-7
  --------------------------------------------------7-7-7-7-7-7-7
  ---------------------------------------------------------------
[ Tab from: http://www.guitartabs.cc/tabs/b/berry_chuck/jonny_b_goode_tab.html ]
  -------------------------------------------------------------------
  -------5-7--5-----------------5---5---5---5---5---5---5---5---5---5
  --5-6---------6-4-2---------7---7---7--7---7---7---7---7---7---7---
  --------------------4-2--------------------------------------------
  -------------------------------------------------------------------
  -------------------------------------------------------------------

  ------5--------7--5------------------5------------------------
  ---5----8-7-5-------8-7-5----------5----8----7--5---5---5-----
  ---------------------------7--5--6----------------7---7---7--5
  --------------------------------------------------------------
  --------------------------------------------------------------
  --------------------------------------------------------------

  ------------------
  ------------------
  ------------------
  --7--5------------
  -----------7------
  ---------7-7------


 this song is played fast and takes a while to get down
  
Comments