Bernard Fanning - Wish You Well Chords & Tabs

 

Wish You Well Chords & Tabs

Bernard Fanning Chords & Tabs

Version: 1 Type: Tab

Wish You Well Tab

Okay this is my first tab. It should be fine. Its not a particularly difficult song.
The strumming pattern is pretty fast. Listen to the song you'll figure it out.
Any suggestions.. make yourself heard. Lyrics included at the bottom

Structure
INTRO	X3
VERSE 1
VERSE 2
Pre-chorus
CHORUS
VERSE 3
Pre-chorus
CHORUS
OUTRO

NOTE: Use the INTRO tabs (go through 3 times) for the pre-chorus
      x - palm mute
      Standard tunning      
   
INTRO          
E|----2--2--2---x----3--x---0--x-----|
B|----3--3--3---x----0--x---2--x-----|
G|----2--2--2---x----0--x---2--x-----|	X3
D|----0--0--0---x----0--x---2--x-----|
A|----x--x--x---x----2--x---0--x-----|
E|----x--x--x---x----3--x---0--x-----|

VERSE 1 (tabs the same for 2nd and 3rd verse)

Up so early feels so bright
E|----2--2--2---x---3--x--0--x-----|----2--2--2---x----3--x---0--x-----|
B|----3--3--3---x---0--x--2--x-----|----3--3--3---x----0--x---2--x-----|
G|----2--2--2---x---0--x--2--x-----|----2--2--2---x----0--x---2--x-----|	
D|----0--0--0---x---0--x--2--x-----|----0--0--0---x----0--x---2--x-----|
A|----x--x--x---x---2--x--0--x-----|----x--x--x---x----2--x---0--x-----|
E|----x--x--x---x---3--x--0--x-----|----x--x--x---x----3--x---0--x-----|

Didnít get much sleep last night
E|----2--2--2---x---3--x--0--x-----|----2--2--2---x----3--x---0--x-----|
B|----3--3--3---x---0--x--2--x-----|----3--3--3---x----0--x---2--x-----|
G|----2--2--2---x---0--x--2--x-----|----2--2--2---x----0--x---2--x-----|	
D|----0--0--0---x---0--x--2--x-----|----0--0--0---x----0--x---2--x-----|
A|----x--x--x---x---2--x--0--x-----|----x--x--x---x----2--x---0--x-----|
E|----x--x--x---x---3--x--0--x-----|----x--x--x---x----3--x---0--x-----|

Freight train rattled through my head
E|----0--x--0--0--0--0--0--0--0-----|----3--3--x---3--3--3----|
B|----0--x--0--0--0--0--0--0--0-----|----0--0--x---0--0--0----|
G|----0--x--0--0--0--0--0--0--0-----|----0--0--x---0--0--0----|	
D|----2--x--2--2--2--2--2--2--2-----|----0--0--x---0--0--0----|
A|----2--x--2--2--2--2--2--2--2-----|----2--2--x---2--2--2----|
E|----0--x--0--0--2--0--0--0--0-----|----3--3--x---3--3--3----|
[ Tab from: http://www.guitartabs.cc/tabs/b/bernard_fanning/wish_you_well_tab.html ]
Whistle blowing love instead
E|----2--2--2---x---3--x--0--x-----|----2--2--2---x----3--x---0--x-----|
B|----3--3--3---x---0--x--2--x-----|----3--3--3---x----0--x---2--x-----|
G|----2--2--2---x---0--x--2--x-----|----2--2--2---x----0--x---2--x-----|	
D|----0--0--0---x---0--x--2--x-----|----0--0--0---x----0--x---2--x-----|
A|----x--x--x---x---2--x--0--x-----|----x--x--x---x----2--x---0--x-----|
E|----x--x--x---x---3--x--0--x-----|----x--x--x---x----3--x---0--x-----|

Instead
E|----2--2--2---x---3--x--0--x-----|----2--2--2---x----3--x---0--x-----|
B|----3--3--3---x---0--x--2--x-----|----3--3--3---x----0--x---2--x-----|
G|----2--2--2---x---0--x--2--x-----|----2--2--2---x----0--x---2--x-----|	
D|----0--0--0---x---0--x--2--x-----|----0--0--0---x----0--x---2--x-----|
A|----x--x--x---x---2--x--0--x-----|----x--x--x---x----2--x---0--x-----|
E|----x--x--x---x---3--x--0--x-----|----x--x--x---x----3--x---0--x-----|

CHORUS

Restless future burning bright
E|----0--x--0--0--0--0--0--0--0-----|----3--3--x---3--3--3----|
B|----0--x--0--0--0--0--0--0--0-----|----0--0--x---0--0--0----|
G|----0--x--0--0--0--0--0--0--0-----|----0--0--x---0--0--0----|	
D|----2--x--2--2--2--2--2--2--2-----|----0--0--x---0--0--0----|
A|----2--x--2--2--2--2--2--2--2-----|----2--2--x---2--2--2----|
E|----0--x--0--0--2--0--0--0--0-----|----3--3--x---3--3--3----|

Iím just holding on so tight
E|----0--x--0--0--0--0--0--0--0-----|----2--2--x---2--2------|
B|----2--x--2--2--2--2--2--2--2-----|----3--3--x---3--3------|
G|----2--x--2--2--2--2--2--2--2-----|----4--4--x---4--4------|	
D|----2--x--2--2--2--2--2--2--2-----|----4--4--x---4--4------|
A|----0--x--0--0--0--0--0--0--0-----|----2--2--x---2--2------|
E|----0--x--0--0--0--0--0--0--0-----|----x--x---x---x--x-----|

Never heard the warning bell
E|----2--x--2--2--2--2--2-----|----0--0--x---0--0--0--x--0--0-|
B|----3--x--3--3--3--3--3-----|----0--0--x---0--0--0--x--0--0-|
G|----2--x--2--2--2--2--2-----|----0--0--x---0--0--0--x--0--0-|	
D|----0--x--0--0--0--0--0-----|----2--2--x---2--2--2--x--2--2-|
A|----x--x--x--x--x--x--x-----|----2--2--x---2--2--2--x--2--2-|
E|----x--x--x--x--x--x--x-----|----0--0--x---0--0--0--x--0--0-|

OUTRO

E|----2--2--2---x---3--x--0--x-----|----2--2--2---x----3--x---0--x---|
B|----3--3--3---x---0--x--2--x-----|----3--3--3---x----0--x---2--x---|
G|----2--2--2---x---0--x--2--x-----|----2--2--2---x----0--x---2--x---|	
D|----0--0--0---x---0--x--2--x-----|----0--0--0---x----0--x---2--x---|	X3
A|----x--x--x---x---2--x--0--x-----|----x--x--x---x----2--x---0--x---|
E|----x--x--x---x---3--x--0--x-----|----x--x--x---x----3--x---0--x---|
	  
 		
E|----2--2--2---x---3--x--0--x-----|----2----------------------------|
B|----3--3--3---x---0--x--2--x-----|----3----------------------------|
G|----2--2--2---x---0--x--2--x-----|----2----------------------------|	
D|----0--0--0---x---0--x--2--x-----|----0----------------------------|	
A|----x--x--x---x---2--x--0--x-----|----x----------------------------|
E|----x--x--x---x---3--x--0--x-----|----x----------------------------|