Berlin - Take My Breath Away Chords & Tabs

 

Take My Breath Away Chords & Tabs

Berlin Chords & Tabs

Version: 5 Type: Tab 0 ratings
1 star 2 stars 3 stars 4 stars 5 stars
comments

Take My Breath Away Tab

   
Songtitle: Take My Breath Away
Artist: Berlin
Tabbed by: Marko Borosic
E-mail : mborosic@web.de

Guitar tuned 1/2 step down

The intro is actually a bassguitar, but I transcribed it for a usual guitar, shouldn`t sound too bad, even 
it`s not the original version.

Intro:
--------------------------------------------------------------------------------------------|
--------------------------------------------------------------------------------------------|
--------------------------------------------------------------------------------------------|
-----------------------------------------------------three-times----------------------------|
--------0--2--0-----------------------------------------------------------------------------|
--0--2----------------0--4-----0--2-----0--4------------------------------------------------|


--------------------------------------------------------------------------------------------|
--------------------------------------------------------------------------------------------|
--------------------------------------------------------------------------------------------|
--------------------------------------------------------------------------------------------|
--------0--4--2---------0------2------------------------------------------------------------|
--0--2---------------2------------4-----2--0------------------------------------------------|

[ Tab from: http://www.guitartabs.cc/tabs/b/berlin/take_my_breath_away_tab_ver_5.html ]
--------------------------------------------------------------------------------------------|
--------------------------------------------------------------------------------------------|
--------------------------------------------------------------------------------------------|
--------------------------------------------------------------------------------------------|
--------0--2--0-----------------------------------------------------------------------------|
--0--2----------------0--4------0--2-----2--0-----------------------------------------------|

A
Watching every motion
C#m			F#m	C#m
In my foolish lover's game
A
On this endless ocean
C#m			F#m	C#m	A
Finally lovers know no shame
Bm
Turning and returning
A			E
To some secret place inside
A
Watching in slow motion
C#m			Bm	E
As you turn around and say

E		A	C#m	Bm	E
Take my breath away
		A	C#m	Bm	E
Take my breath away

Watching I keep waiting
Still anticipating love
Never hesitating
To become the fated ones
Turning and returning
To some secret place to hide
Watching in slow motion
As you turn to me and say

Take my breath away

B			E
Through the hourglass I saw you
D			A
In time you slipped away
B			E
When the mirror crashed I called you
D			A
And turned to hear you say
		B
If only for today
	E
I am unafraid

Take my breath away

Watching every motion
In this foolish lover's game
Haunted by the notion
Somewhere there's a love in flames
Turning and returning
To some secret place inside
Watching in slow motion
As you turn my way and say

Take my breath away
Comments