Berlin - Take My Breath Away Chords & Tabs

 

Take My Breath Away Chords & Tabs

Berlin Chords & Tabs

Version: 4 Type: Tab 0 ratings
1 star 2 stars 3 stars 4 stars 5 stars
comments

Take My Breath Away Tab

   
Song-Take My Breath Away
Artist-Berlin
Album-Top Gun Soundtrack
*Tabbed By-mAsZ1dAh*
-----------------------------------------------------------------------
All I Have Is This Little Riff
------------------------------------------------------------------------|
e|----------------------------------------------------------------------|
B|----------------------------------------------------------------------|
G|----------------------------------------------------------------------|
D|----------------------------------------------------------------------|
A|----------------------------------------------------------------------|
E|-0-2-4-6-5----0-4----0-2----0-4---------------------------------------|

Or You Can Add Distortion And Play It Like This-
e|-----------------------------------------------------------------|
B|-----------------------------------------------------------------|
G|-----------------------------------------------------------------|
D|-2-4-6-8-7-7-7-7-7-7-7---6-6-6-6-6-6-6---4-4-4-4-4-4-4---6-6-6-6-|
A|-2-4-6-8-7-7-7-7-7-7-7---6-6-6-6-6-6-6---4-4-4-4-4-4-4---6-6-6-6-|
E|-0-2-4-6-5-5-5-5-5-5-5-0-4-4-4-4-4-4-4-0-2-2-2-2-2-2-2-0-4-4-4-4-|
[ Tab from: http://www.guitartabs.cc/tabs/b/berlin/take_my_breath_away_tab_ver_4.html ]
Comments