Berlin - Take My Breath Away Chords & Tabs

 

Take My Breath Away Chords & Tabs

Berlin Chords & Tabs

Version: 1 Type: Bass Tab 0 ratings
1 star 2 stars 3 stars 4 stars 5 stars
comments

Take My Breath Away Bass Tab

Song-Take My Breath Away
Artist-Berlin
Album-Top Gun Soundtrack
Tabbed by thephatbassist@hotmail.com


Intro:

  1   2   3   4    1   2   3   4    1   2   3   4    1   2   3   4
G|----------------|----------------|----------------|----------------|
D|----------------|----------------|----------------|------------6-8-|
A|----------------|----------------|----------------|--------6-8-----|
E|----------------|----------------|----------------|----------------|

  1   2   3   4    1   2   3   4    1   2   3   4    1   2   3   4
G|----------------|----------------|----------------|----------------|
D|6---------------|5---------------|----------------|5-----------6-8-|
A|--------------6-|----------------|8-------------6-|--------6-8-----|
E|----------------|--------------9-|----------------|----------------|

Verse:

  1   2   3   4    1   2   3   4    1   2   3   4    1   2   3   4
G|----------------|----------------|----------------|----------------|
D|6---------------|5---------------|----------------|5-----------6-8-|
A|--------------6-|----------------|8-------------6-|--------6-8-----|
E|----------------|--------------9-|----------------|----------------|

  1   2   3   4    1   2   3   4    1   2   3   4    1   2   3   4
G|----------------|----------------|----------------|--------------5-|
D|6---------------|5---------------|----------------|5-----------6---|
A|--------------6-|----------------|8-------------6-|--------6-8-----|
E|----------------|--------------9-|----------------|----------------|

  1   2   3   4    1   2   3   4    1   2   3   4    1   2   3   4
G|----------------|----------------|----------------|----------------|
D|8---------------|6---------------|----------------|------------6-8-|
A|--------------8-|--------------4-|6-------------4-|6-------6-8-----|
E|----------------|----------------|----------------|----------------|

  1   2   3   4    1   2   3   4    1   2   3   4    1   2   3   4
G|----------------|----------------|----------------|----------------|
D|6---------------|5---------------|----------------|------------6-8-|
A|--------------6-|----------------|----------------|6-------6-8-----|
E|----------------|--------------8-|9-------------6-|----------------|

Chorus:

  1   2   3   4    1   2   3   4    1   2   3   4    1   2   3   4
G|----------------|----------------|----------------|----------------|
D|6---------------|5---------------|----------------|------------6-8-|
A|--------------6-|----------------|----------------|6-------6-8-----|
E|----------------|--------------8-|9-------------6-|----------------|

  1   2   3   4    1   2   3   4    1   2   3   4    1   2   3   4
G|----------------|----------------|----------------|----------------|
D|6---------------|5---------------|----------------|------------6-8-|
A|--------------6-|----------------|----------------|6-------6-8-----|
E|----------------|--------------8-|9-------------6-|----------------|

Verse:

  1   2   3   4    1   2   3   4    1   2   3   4    1   2   3   4
G|----------------|----------------|----------------|----------------|
D|6---------------|5---------------|----------------|5-----------6-8-|
A|--------------6-|----------------|8-------------6-|--------6-8-----|
E|----------------|--------------9-|----------------|----------------|

  1   2   3   4    1   2   3   4    1   2   3   4    1   2   3   4
G|----------------|----------------|----------------|--------------5-|
D|6---------------|5---------------|----------------|5-----------6---|
A|--------------6-|----------------|8-------------6-|--------6-8-----|
E|----------------|--------------9-|----------------|----------------|

  1   2   3   4    1   2   3   4    1   2   3   4    1   2   3   4
G|----------------|----------------|----------------|----------------|
D|8---------------|6---------------|----------------|------------6-8-|
A|--------------8-|--------------4-|6-------------4-|6-------6-8-----|
E|----------------|----------------|----------------|----------------|
[ Tab from: http://www.guitartabs.cc/tabs/b/berlin/take_my_breath_away_btab.html ]
  1   2   3   4    1   2   3   4    1   2   3   4    1   2   3   4
G|----------------|----------------|----------------|----------------|
D|6---------------|5---------------|----------------|------------6-8-|
A|--------------6-|----------------|----------------|6-------6-8-----|
E|----------------|--------------8-|9-------------6-|----------------|

Bridge:

  1   2   3   4    1   2   3   4    1   2   3   4    1   2   3   4
G|----------------|----------------|----------------|----------------|
D|6---------------|5---------------|----------------|5-------6-------|
A|--------------6-|----------------|8-------------6-|----------------|
E|----------------|--------------9-|----------------|----------------|

  1   2   3   4    1   2   3   4    1   2   3   4    1   2   3   4
G|----------------|----------------|----------------|----------------|
D|8-------------6-|5---------------|----------------|6-----------6---|
A|----------------|--------------6-|4-------------4-|----------------|
E|----------------|----------------|----------------|----------------|

  1   2   3   4    1   2   3   4    1   2   3   4    1   2   3   4
G|----------------|----------------|----------------|----------------|
D|8-------------6-|5---------------|----------------|6-------------6-|
A|----------------|--------------6-|4-------------4-|----------------|
E|----------------|----------------|----------------|----------------|

  1   2   3   4    1   2   3   4    1   2   3   4    1   2   3   4
G|----------------|----------------|8---------------|----------------|
D|8---------------|----------------|------8---------|------------6-8-|
A|------8---------|----------------|--------------6-|--------6-8-----|
E|--------------6-|----------------|----------------|----------------|

Chorus:

  1   2   3   4    1   2   3   4    1   2   3   4    1   2   3   4
G|----------------|----------------|----------------|----------------|
D|6---------------|5---------------|----------------|5-----------6-8-|
A|--------------6-|----------------|8-------------6-|--------6-8-----|
E|----------------|--------------9-|----------------|----------------|

  1   2   3   4    1   2   3   4    1   2   3   4    1   2   3   4
G|----------------|----------------|----------------|------------4-6-|
D|6---------------|5---------------|----------------|--------4-6-----|
A|--------------6-|----------------|8-------------8-|7---------------|
E|----------------|--------------9-|----------------|----------------|

Verse:

  1   2   3   4    1   2   3   4    1   2   3   4    1   2   3   4
G|4---------------|3---------------|----------------|3-----------4-6-|
D|--------------4-|----------------|6-------------4-|--------4-6-----|
A|----------------|--------------7-|----------------|----------------|
E|----------------|----------------|----------------|----------------|

  1   2   3   4    1   2   3   4    1   2   3   4    1   2   3   4
G|4---------------|3---------------|----------------|3-----------4-8-|
D|--------------4-|----------------|6-------------4-|--------4-6-----|
A|----------------|--------------7-|----------------|----------------|
E|----------------|----------------|----------------|----------------|

  1   2   3   4    1   2   3   4    1   2   3   4    1   2   3   4
G|6---------------|4---------------|----------------|------------4-6-|
D|--------------6-|--------------2-|4-------------2-|4-------4-6-----|
A|----------------|----------------|----------------|----------------|
E|----------------|----------------|----------------|----------------|

  1   2   3   4    1   2   3   4    1   2   3   4    1   2   3   4
G|4---------------|3---------------|----------------|------------4-6-|
D|--------------4-|----------------|----------------|4-------4-6-----|
A|----------------|--------------6-|7-------------4-|----------------|
E|----------------|----------------|----------------|----------------|

Chorus:

  1   2   3   4    1   2   3   4    1   2   3   4    1   2   3   4
G|4---------------|3---------------|----------------|------------4-6-|
D|--------------4-|----------------|----------------|4-------4-6-----|
A|----------------|--------------6-|7-------------4-|----------------|
E|----------------|----------------|----------------|----------------|

Fade out
Comments