Bergeners - Eg Tok Min Nystemte Chords & Tabs

 

Eg Tok Min Nystemte Chords & Tabs

Bergeners Chords & Tabs

Version: 1 Type: Tab 0 ratings
1 star 2 stars 3 stars 4 stars 5 stars
comments

Eg Tok Min Nystemte Tab

   
Bergeners - Eg tok min nystemte
===============================

Band : Bergeners
Album: Frekk å tidi'
Music: Bergeners
Tab  : Thomas Teigland, thomas_teigland@yahoo.com

An old classic song, "Jeg tok min nystemte" by the
famous composer Johan Nordahl Brun (1774-1816),
played by the Bergeners. Their version from the
70s has no words, just two guitars playing
alongside eachother. Thanks to my friend 
Anders Kompelien Iden for reminding me of this
beautiful song.

--- 

Guitar1 plays the lead. 
Guitar2 plays a combination of easy picking
and strumming throughout the song.

Guitar2 is transcribed by the chords as shown
over the tab throughout the song, with small
exceptions. When not tabbed, just play the
chords as shown above Guitar1 tab throughout
the song.

Intro/Bridge/Outro:

   A             G#m         F#m           B
e--9------9------7-----7-----5------5-------------
B----10-----10-----9-----9-----7------7-----------
G-------9------------8-----------6----------------
D-------------------------------------------------
A-------------------------------------------------
E-------------------------------------------------

Guitar 1:              | Guitar2:
e--7-6--7-5--7-4--7----|--------------------------
B----------------------|----4----5----7-----------
G----------------------|--4----4----4---4---------
D----------------------|--------------------------
A-------(played simultaneously in sync)-----------
E----------------------|--------------------------

Verse:
[ Tab from: http://www.guitartabs.cc/tabs/b/bergeners/eg_tok_min_nystemte_tab.html ]
   E(VII)   G#m         A           E(VII)
e-------4-----------------------------------------
B--5-5----5---------------------------------------
G-----------4-4--4-6-6--8-8h9p8-6-6-4-------------
D-------------------------------------------------
A-------------------------------------------------
E-------------------------------------------------
   C#m       B           F#      B         
e--4-4-4h5-4---5/7---------------|----------------
B------------7-------4-5-7-5-4---|-( Guitar2 )----
G------------------------------6-4-( transition )-
D--------------------------------|----------------
A--------------------------------2-4-2-0----------
E--------------------------------|-------4-2------

Chorus:
   B       E(VII)     C#m           B
e--5-5--------------------------------------------
B------7-4-5-5------4-5-4-------------------------
G---------------4-6-------6-4---------------------
D-----------------------------7-6-6-4-------------
A-------------------------------------------------
E-------------------------------------------------
     E(VII)   C#m        F#m           E(VII)
e-----------4-4------4-7-7-5-4--------------------
B--5-5----------5--------------7-5-4-7-5----------
G------4------------------------------------------
D-------------------------------------------------
A-------------------------------------------------
E-------------------------------------------------

The song is played in the following order:

Intro
Verse (x2)
Chorus
Bridge
Verse (x2)
Chorus
Outro

Thats it, enjoy!

- EOF -
Comments