Beowulf - Realm Of Sanity Chords & Tabs

 

Realm Of Sanity Chords & Tabs

Beowulf Chords & Tabs

Version: 1 Type: Tab 0 ratings
1 star 2 stars 3 stars 4 stars 5 stars
comments

Realm Of Sanity Tab

Beowulf - Realm Of Sanity
Submitted By: Beowulf
EMail: american_dreadnought@hotmail.com


*= use side of thumb and run back and forth over the strings stated
[ Tab from: http://www.guitartabs.cc/tabs/b/beowulf/realm_of_sanity_tab.html ]
Intro/Riff 1
Gtr. 1                                  End Riff
E|--------------------------------------||----||
B|--------------------------------------||----|| 
G|----------2-2-2-2---------------------||----||
D|-2-2-2-2--2-2-2-2--2-2-2-2--0-0-0-0---||---2|| tempo:
A|-2-2-2-2--0-0-0-0--2-2-2-2--2-2-2-2---||---2|| 160 BPM
E|-0-0-0-0-(let ring)---------2-2-2-2---||-0-0||
Gtr. 2            e||-3-3-3-3-1-1-1-----||-3-1||
   Abm7(x8)       B||---------------3---||-3-1||
Riff 2
Both Gtrs.
E|--------------------------------------------------||
B|--------------------------------------------------||
G|--------------------------------------------------||
D|-77777777--------------------------5(hold)--------||
A|-55555555-77777777-99999999-44444--5(hold)--------||
E|----------55555555-77777777-22222--3(hold)--------||
PM ........ ........ ........ .....
Riff 3*
Gtr 1.
E|----------------------------------------||
B|----------------------------------------||
G|------------22222222--------------------||
D|-22222222---22222222-22222222-----------||
A|-22222222------------22222222-22222222--||
E|------------------------------22222222--||
PM ........   ........ ........ ........
Riff 1
fig 1. Take us to the Realm of Sanity, Lost souls of tranquility
fig 2. This place now is filled with the lifeless eyes of emptiness
fig 3. Clear my demons from our path and take us to the Sanity
fig 4. Please don't go, don't leave me here, all by myself, afraid of dark
fig 5. And show us how to tame the beast, so we may own anoter night's sleep
End Riff
Riff 1
(only gtr.2)
fig 1. Lead us all now by the hand, show my people where to stand
fig 2. We will fight to save our own, but when it's done, will you be shown
fig 3.(wait for chords to end) the time is here, and now it time to FIGHT!!!!
Riff 2(x3)
Riff 3(x3)
Fight, Fight, DIE!!!
Riff 2(x5)
Riff 1(x4) - fade out
Comments