Beowulf - It All Ends Chords & Tabs

 

It All Ends Chords & Tabs

Beowulf Chords & Tabs

Version: 1 Type: Tab 0 ratings
1 star 2 stars 3 stars 4 stars 5 stars
comments

It All Ends Tab

   
Beowulf - It All Ends
Submitted By: Beowulf
EMail: american_dreadnought@hotmail.com


Intro: C(x8)            G7(x8)            C(x8)        G7(x4) C(x4)
E|-0-0-0-0-0-0-0-0--0-0-0-0-0-0-0-0-----------------------------------||
B|-1-1-1-1-1-1-1-1--0-0-0-0-0-0-0-0-----------------------------------||
G|-0-0-0-0-0-0-0-0--0-0-0-0-0-0-0-0-----------------------------------||
D|-2-2-2-2-2-2-2-2--2-2-2-2-2-2-2-2--2-2-2-2-2-2-2-2--2-2-2-2-2-2-2-2-||
A|-3-3-3-3-3-3-3-3--3-3-3-3-3-3-3-3--3-3-3-3-3-3-3-3--3-3-3-3-3-3-3-3-||
E|-----------------------------------1-1-1-1-1-1-1-1--3-3-3-3-3-3-3-3-||
[ Tab from: http://www.guitartabs.cc/tabs/b/beowulf/it_all_ends_tab.html ]
       C(x8)            G7(x8)            C(x8)        G7(x4) C(x4)
E|-0-0-0-0-0-0-0-0--0-0-0-0-0-0-0-0-----------------------------------||
B|-1-1-1-1-1-1-1-1--0-0-0-0-0-0-0-0-----------------------------------||
G|-0-0-0-0-0-0-0-0--0-0-0-0-0-0-0-0-----------------------------------||
D|-2-2-2-2-2-2-2-2--2-2-2-2-2-2-2-2--2-2-2-2-2-2-2-2--2-2-2-2-2-2-2-2-||
A|-3-3-3-3-3-3-3-3--3-3-3-3-3-3-3-3--3-3-3-3-3-3-3-3--3-3-3-3-3-3-3-3-||
E|-----------------------------------1-1-1-1-1-1-1-1--3-3-3-3-3-3-3-3-||
   It all ends,        dies,         fades away into   the darkness
                                                         of the night
       C(x8)            G7(x8)            C(x8)        G7(x4) C(x4)
E|-0-0-0-0-0-0-0-0--0-0-0-0-0-0-0-0-----------------------------------||
B|-1-1-1-1-1-1-1-1--0-0-0-0-0-0-0-0-----------------------------------||
G|-0-0-0-0-0-0-0-0--0-0-0-0-0-0-0-0-----------------------------------||
D|-2-2-2-2-2-2-2-2--2-2-2-2-2-2-2-2--2-2-2-2-2-2-2-2--2-2-2-2-2-2-2-2-||
A|-3-3-3-3-3-3-3-3--3-3-3-3-3-3-3-3--3-3-3-3-3-3-3-3--3-3-3-3-3-3-3-3-||
E|-----------------------------------1-1-1-1-1-1-1-1--3-3-3-3-3-3-3-3-||
   We all know,       to fight,         to live, without the softly dying
                                                      twilight nights                   
C(x8)                   G7(x8)            C(x8)        G7(x4) C(x4)
E|-0-0-0-0-0-0-0-0--0-0-0-0-0-0-0-0-----------------------------------||
B|-1-1-1-1-1-1-1-1--0-0-0-0-0-0-0-0-----------------------------------||
G|-0-0-0-0-0-0-0-0--0-0-0-0-0-0-0-0-----------------------------------||
D|-2-2-2-2-2-2-2-2--2-2-2-2-2-2-2-2--2-2-2-2-2-2-2-2--2-2-2-2-2-2-2-2-||
A|-3-3-3-3-3-3-3-3--3-3-3-3-3-3-3-3--3-3-3-3-3-3-3-3--3-3-3-3-3-3-3-3-||
E|-----------------------------------1-1-1-1-1-1-1-1--3-3-3-3-3-3-3-3-||
  It's kind of odd     to find       something like      devine
                                           this, so     
       C(x8)            G7(x8)            C(x8)        G7(x4) C(x4)
E|-0-0-0-0-0-0-0-0--0-0-0-0-0-0-0-0-----------------------------------||
B|-1-1-1-1-1-1-1-1--0-0-0-0-0-0-0-0-----------------------------------||
G|-0-0-0-0-0-0-0-0--0-0-0-0-0-0-0-0-----------------------------------||
D|-2-2-2-2-2-2-2-2--2-2-2-2-2-2-2-2--2-2-2-2-2-2-2-2--2-2-2-2-2-2-2-2-||
A|-3-3-3-3-3-3-3-3--3-3-3-3-3-3-3-3--3-3-3-3-3-3-3-3--3-3-3-3-3-3-3-3-||
E|-----------------------------------1-1-1-1-1-1-1-1--3-3-3-3-3-3-3-3-||
  It's kind of hard     to tell            you        the way i feel
       C(x8)            G7(x8)            C(x8)        G7(x4) C(x4)
E|-0-0-0-0-0-0-0-0--0-0-0-0-0-0-0-0-----------------------------------||
B|-1-1-1-1-1-1-1-1--0-0-0-0-0-0-0-0-----------------------------------||
G|-0-0-0-0-0-0-0-0--0-0-0-0-0-0-0-0-----------------------------------||
D|-2-2-2-2-2-2-2-2--2-2-2-2-2-2-2-2--2-2-2-2-2-2-2-2--2-2-2-2-2-2-2-2-||
A|-3-3-3-3-3-3-3-3--3-3-3-3-3-3-3-3--3-3-3-3-3-3-3-3--3-3-3-3-3-3-3-3-||
E|-----------------------------------1-1-1-1-1-1-1-1--3-3-3-3-3-3-3-3-||
   But i guess         it's ok        'cause you'll     find out anyways
       C(x8)            G7(x8)            C(x8)        G7(x4) C(x4)
E|-0-0-0-0-0-0-0-0--0-0-0-0-0-0-0-0-----------------------------------||
B|-1-1-1-1-1-1-1-1--0-0-0-0-0-0-0-0-----------------------------------||
G|-0-0-0-0-0-0-0-0--0-0-0-0-0-0-0-0-----------------------------------||
D|-2-2-2-2-2-2-2-2--2-2-2-2-2-2-2-2--2-2-2-2-2-2-2-2--2-2-2-2-2-2-2-2-||
A|-3-3-3-3-3-3-3-3--3-3-3-3-3-3-3-3--3-3-3-3-3-3-3-3--3-3-3-3-3-3-3-3-||
E|-----------------------------------1-1-1-1-1-1-1-1--3-3-3-3-3-3-3-3-||
  When i tell you    say "Please      because we all   have a time to die
                       don't cry"
       C(x8)            G7(x8)            C(x8)        G7(x4) C(x4)
E|-0-0-0-0-0-0-0-0--0-0-0-0-0-0-0-0-----------------------------------||
B|-1-1-1-1-1-1-1-1--0-0-0-0-0-0-0-0-----------------------------------||
G|-0-0-0-0-0-0-0-0--0-0-0-0-0-0-0-0-----------------------------------||
D|-2-2-2-2-2-2-2-2--2-2-2-2-2-2-2-2--2-2-2-2-2-2-2-2--2-2-2-2-2-2-2-2-||
A|-3-3-3-3-3-3-3-3--3-3-3-3-3-3-3-3--3-3-3-3-3-3-3-3--3-3-3-3-3-3-3-3-||
E|-----------------------------------1-1-1-1-1-1-1-1--3-3-3-3-3-3-3-3-||
  I love you too    please go away   I don't want you   end up this way
       C(x8)            G7(x8)            C(x8)        G7(x4) C(x4)
E|-0-0-0-0-0-0-0-0--0-0-0-0-0-0-0-0-----------------------------------||
B|-0-0-0-0-1-1-1-1--0-0-0-0-0-0-0-0-----------------------------------||
G|-0-0-0-0-0-0-0-0--0-0-0-0-0-0-0-0--0-0-0-0-0-0-0-0--0-0-0-0-0-0-0-0-||
D|-2-2-2-2-2-2-2-2--2-2-2-2-2-2-2-2--2-2-2-2-2-2-2-2--2-2-2-2-2-2-2-2-||
A|-3-3-3-3-3-3-3-3--3-3-3-3-3-3-3-3--3-3-3-3-3-3-3-3--3-3-3-3-3-3-3-3-||
E|-----------------------------------1-1-1-1-1-1-1-1--3-3-3-0-0-0-0-0-||
    Don't tell me    what to do       my time to die   not time for you
       C(x8)            G7(x8)            C(x8)        G7(x4) C(x4)
E|-0-0-0-0-0-0-0-0--0-0-0-0-0-0-0-0-----------------------------------||
B|-1-1-1-1-1-1-1-1--0-0-0-0-0-0-0-0-----------------------------------||
G|-0-0-0-0-0-0-0-0--0-0-0-0-0-0-0-0-----------------------------------||
D|-2-2-2-2-2-2-2-2--2-2-2-2-2-2-2-2--2-2-2-2-2-2-2-2--2-2-2-2-2-2-2-2-||
A|-3-3-3-3-3-3-3-3--3-3-3-3-3-3-3-3--3-3-3-3-3-3-3-3--3-3-3-3-3-3-3-3-||
E|-----------------------------------1-1-1-1-1-1-1-1--3-3-3-3-3-3-3-3-||
    Go away!!!      get the hell out  get the fuck up  and leave this
                                                         house
       C(x8)            G7(x8)            C(x8)        G7(x4) C(x4)
E|-0-0-0-0-0-0-0-0--0-0-0-0-0-0-0-0-----------------------------------||
B|-1-1-1-1-1-1-1-1--0-0-0-0-0-0-0-0-----------------------------------||
G|-0-0-0-0-0-0-0-0--0-0-0-0-0-0-0-0-----------------------------------||
D|-2-2-2-2-2-2-2-2--2-2-2-2-2-2-2-2--2-2-2-2-2-2-2-2--2-2-2-2-2-2-2-2-||
A|-3-3-3-3-3-3-3-3--3-3-3-3-3-3-3-3--3-3-3-3-3-3-3-3--3-3-3-3-3-3-3-3-||
E|-----------------------------------1-1-1-1-1-1-1-1--3-3-3-3-3-3-3-3-||
 Fine, i swear    just leave me alone   
    i won't
       C(x8)            G7(x8)            C(x8)        G7(x4) C(x4)
E|-0-0-0-0-0-0-0-0--0-0-0-0-0-0-0-0-----------------------------------||
B|-1-1-1-1-1-1-1-1--0-0-0-0-0-0-0-0-----------------------------------||
G|-0-0-0-0-0-0-0-0--0-0-0-0-0-0-0-0-----------------------------------||
D|-2-2-2-2-2-2-2-2--2-2-2-2-2-2-2-2--2-2-2-2-2-2-2-2--2-2-2-2-2-2-2-2-||
A|-3-3-3-3-3-3-3-3--3-3-3-3-3-3-3-3--3-3-3-3-3-3-3-3--3-3-3-3-3-3-3-3-||
E|-----------------------------------1-1-1-1-1-1-1-1--3-3-3-3-3-3-3-3-||
    I don't know      what to do      save my life    and help me through
       C(x8)            G7(x8)            C(x8)        G7(x4) C(x4)
E|-0-0-0-0-0-0-0-0--0-0-0-0-0-0-0-0-----------------------------------||
B|-1-1-1-1-1-1-1-1--0-0-0-0-0-0-0-0---------------------------(x2)----||
G|-0-0-0-0-0-0-0-0--0-0-0-0-0-0-0-0-----------------------------------||
D|-2-2-2-2-2-2-2-2--2-2-2-2-2-2-2-2--2-2-2-2-2-2-2-2--2-2-2-2-2-2-2-2-||
A|-3-3-3-3-3-3-3-3--3-3-3-3-3-3-3-3--3-3-3-3-3-3-3-3--3-3-3-3-3-3-3-3-||
E|-----------------------------------1-1-1-1-1-1-1-1--3-3-3-3-3-3-3-3-||
 i changed my mind, don't want to die   help me to    find a reason why
       C(x8)            G7(x8)            C(x8)        G7(x4) C(x4)
E|-0-0-0-0-0-0-0-0--0-0-0-0-0-0-0-0-----------------------------------||
B|-1-1-1-1-1-1-1-1--0-0-0-0-0-0-0-0---------------------(x4)----------||
G|-0-0-0-0-0-0-0-0--0-0-0-0-0-0-0-0-----------------------------------||
D|-2-2-2-2-2-2-2-2--2-2-2-2-2-2-2-2--2-2-2-2-2-2-2-2--2-2-2-2-2-2-2-2-||
A|-3-3-3-3-3-3-3-3--3-3-3-3-3-3-3-3--3-3-3-3-3-3-3-3--3-3-3-3-3-3-3-3-||
E|-----------------------------------1-1-1-1-1-1-1-1--3-3-3-3-3-3-3-3-||
   Don't go away   don't leave me here  don't do it     full on fear
E|-------------------||
B|-------------------||
G|-9--------9---7^^--||
D|-9-5-7^^--9-5-7^^--|| (x4)
A|-7-5-5^^--7-5-5^^--||
E|---3-5^^----3------||
 This ends This ends here
    now
       C(x8)            G7(x8)            C(x8)        G7(x4) C(x4)
E|-0-0-0-0-0-0-0-0--0-0-0-0-0-0-0-0-----------------------------------||
B|-1-1-1-1-1-1-1-1--0-0-0-0-0-0-0-0-----------------------------------||
G|-0-0-0-0-0-0-0-0--0-0-0-0-0-0-0-0-----------------------------------||
D|-2-2-2-2-2-2-2-2--2-2-2-2-2-2-2-2--2-2-2-2-2-2-2-2--2-2-2-2-2-2-2-2-||
A|-3-3-3-3-3-3-3-3--3-3-3-3-3-3-3-3--3-3-3-3-3-3-3-3--3-3-3-3-3-3-3-3-||
E|-----------------------------------1-1-1-1-1-1-1-1--3-3-3-3-3-3-3-3-||
  Don't trick me      never more      I was tricked    by this whore
       C(x8)            G7(x8)            C(x8)        G7(x4) C(x4)
E|-0-0-0-0-0-0-0-0--0-0-0-0-0-0-0-0-----------------------------------||
B|-1-1-1-1-1-1-1-1--0-0-0-0-0-0-0-0-----------------------------------||
G|-0-0-0-0-0-0-0-0--0-0-0-0-0-0-0-0-----------------------------------||
D|-2-2-2-2-2-2-2-2--2-2-2-2-2-2-2-2--2-2-2-2-2-2-2-2--2-2-2-2-2-2-2-2-||
A|-3-3-3-3-3-3-3-3--3-3-3-3-3-3-3-3--3-3-3-3-3-3-3-3--3-3-3-3-3-3-3-3-||
E|-----------------------------------1-1-1-1-1-1-1-1--3-3-3-3-3-0-0-0-||                 
It's not your fault  it's all mine     I'm so sorry           It's
E|-------------------||
B|-------------------||
G|-9--------9---7^^--||
D|-9-5-7^^--9-5-7^^--||
A|-7-5-5^^--7-5-5^^--||
E|---3-5^^----3------||
Not your fault!!!
Comments