Benny Goodman Orchestra - In The Mood Chords & Tabs

 

In The Mood Chords & Tabs

Benny Goodman Orchestra Chords & Tabs

Version: 2 Type: Tab 0 ratings
1 star 2 stars 3 stars 4 stars 5 stars
comments

In The Mood Tab

   
#---------------------------------YOU BEST NOTE-------------------------------#
#This file is the author's own work and represents their interpretation of the#
#song. You may only use this file for private study, scholarship, or research.#
#-----------------------------------------------------------------------------#

Brian S. did this for YOU!

In the Mood!

Benny Goodman Orchestra arrangment

Intro :
e|---------4---4---4-|(4)-4---4-3-4-----|------------------|
B|-------4-----------|--------------4---|-4-3-2-1----------|
G|-----5-------------|----------------5-|---------4-3-1vv--|
D|---6---------------|------------------|------------------|
A|-------------------|------------------|------------------|
E|-------------------|------------------|------------------|

e|--------4---------|-----------------|-------------------|
B|------4---4-------|---1-----------1-|-----------1-------|
G|(1)/5---------5---|-3---3-1-----3---|-3-1-------1-------|
D|----------------6-|---------3-------|-----3-3---3-------|
A|------------------|-----------------|-------------------|
E|------------------|-----------------|-------------------|

e|-----------------|----------4-------|-|
B|---1-----------1-|----------4-------|-|
G|-3---3-1-----3---|-3-1------5-------|-|
D|---------3-------|-----3-3----------|-|
A|-----------------|------------------|-|
E|-----------------|------------------|-|
   G#       				C#
e|-----4-----4-----|-4-----4----------|-----4-----4------|
B|---4-----4-----4-|-----4------------|---4-----4-----4--|
G|-5-----5-----5---|---5--------------|-5-----5-----5----|
D|-----------------|------------------|------------------|
A|-----------------|------------------|------------------|
E|-----------------|------------------|------------------|
[ Tab from: http://www.guitartabs.cc/tabs/b/benny_goodman_orchestra/in_the_mood_tab_ver_2.html ]
e|-4-----4---------|-----4----4----4--|-----4------|
B|-----4-----------|---6----6----6----|---6--------|
G|---5-------------|-6----6----6------|-6----------|
D|-----------------|------------------|------------|
A|-----------------|------------------|------------|
E|-----------------|------------------|------------|
                          		Eb
e|-----4-----4-----|-4-----4----------|-----6-----6-------|
B|---4-----4-----4-|-----4------------|---8-----8----6----|
G|-5-----5-----5---|---5--------------|-8-----8----8------|
D|-----------------|------------------|-------------------|
A|-----------------|------------------|-------------------|
E|-----------------|------------------|-------------------|
                    _________________1_________________
e|-6-----6-------|---4-4-4-4-4-4-4-|-4-4-4-4-4---------|-|
B|-----8---------|-----------------|-------------------|-|
G|---8-----------|-----------------|-----------------o-|-|
D|---------------|-----------------|-----------------o-|-|
A|---------------|-----------------|-------------------|-|
E|---------------|-----------------|-------------------|-|
  _____________2______________
e|-4-4-4-4-4-4-4-4-|-4-4--4---|-|
B|-----------------|-4-4--4---|-|
G|-----------------|----------|-|
D|-----------------|----------|-|
A|-----------------|----------|-|
E|-----------------|----------|-|
                          ______1,3_____  ______2_______
e|-4-----4--6b(7)-r6--------4-----8--8--||---8--/11------|
B|----6------------------------6---------|---------------|
G|--------------------------------------o|---------------|
D|--------------------------------------o|---------------|
A|---------------------------------------|---------------|
E|---------------------------------------|---------------|

e|-11-11--8-11-11-8-11vv-8-------------------|-|
B|--------------------------11--9------------|-|
G|-------------------------------------------|-|
D|-------------------------------------------|-|
A|-------------------------------------------|-|
E|-------------------------------------------|-|

e|------------------16--------------------------------------|-|
B|--------13-14-/16-----16--17--14--16vvv-------------------|-|
G|--13-15------------------------------------9--\8---9--8---|-|
D|-------------------------------------------9--\8---9--8---|-|
A|-------------------------------------------7--\6---7--6---|-|
E|-----------------------------------------0----------------|-|
Comments