Benny Casette - Watch Your Back Chords & Tabs

 

Watch Your Back Chords & Tabs

Benny Casette Chords & Tabs

Version: 1 Type: Bass Tab 0 ratings
1 star 2 stars 3 stars 4 stars 5 stars
comments

Watch Your Back Bass Tab

   
g------------------------------and repeat it a few times
d------------------------------
a---------------------0-----2--
e--2-22-2-22-2-22-2-2---2-2----
then:
g-----------------------------------------------------
d-------444-2------444-2-------444-2------------------
a------------------------------------4-------0-----2--and repeat
e--2-22-------2-22--------2-22----------2-22---2-2----
[ Tab from: http://www.guitartabs.cc/tabs/b/benny_casette/watch_your_back_btab.html ]
chorus:
g----------------------------------------
d----------------------------------------
a-------------------------------0-----2--
e--2222222-2222222-2222222-2-22---2-2----

slightly after the guitar solo play:
g-------------
d--4---4--2--- play two times
a-----------4-
e----2--------

after that play
g----------------------------------------------------
d--4-2-4-2-4-2-----4-2-4-2-4-2-----4-2---------------repeat
a---------------------------------------4-2----------
e---------------2---------------2-----------4-2-1-0--

end
g------
d------
a------
e-2222-
Comments