Bennett And Clarkson - Amoeba Chords & Tabs

 

Amoeba Chords & Tabs

Bennett And Clarkson Chords & Tabs

Version: 2 Type: Tab 0 ratings
1 star 2 stars 3 stars 4 stars 5 stars
comments

Amoeba Tab

   
    Artist: Genicide
    Tabbed: Bennett and Clarkson
      Date: 25/5/02
 Song Name: Amoeba
    Tuning: Drop C
            (From Low to High) CGCFAD


Riff A (Clean) x2
D|-----------------------------------------|
A|-----------------------------------------|
F|-----------------------------------------|
C|-9--9--10-10-10-10-9--9--7--7--7--7------|
G|-7--7--7--7--7--7--7--7--7--7--7--7------|
C|-7--7--7--7--7--7--7--7--7--7--7--7------|

D|-----------------------------------------|
A|-----------------------------------------|
F|-----------------------------------------|
C|-7--7--7--7--7--7--5--5--5--5--5--5------|
G|-5--5--5--5--5--5--5--5--5--5--5--5------|
C|-5--5--5--5--5--5--5--5--5--5--5--5------|


Riff B (Clean)
D|-----------------------------------------|
A|-----------------------------------------|
F|-----------------------------------------|
C|-1-1-1-1-1-1-1-1-3-3-3-3-3-3-3-3---------|
G|-1-1-1-1-1-1-1-1-3-3-3-3-3-3-3-3---------|
C|-1-1-1-1-1-1-1-1-3-3-3-3-3-3-3-3---------|

Riff B2 (Clean)
D|-----------------------------------------|
A|-----------------------------------------|
F|-----------------------------------------|
C|-9-9-9-9-9-9-9-9-7-7-7-7-7-7-7-7---------|
G|-7-7-7-7-7-7-7-7-7-7-7-7-7-7-7-7---------|
C|-7-7-7-7-7-7-7-7-7-7-7-7-7-7-7-7---------|


Chorus (Heavy Distortion)

Riff C (x2)
D|-------------------------------------------------|
A|-------------------------------------------------|
F|-------------------------------------------------|
C|-------------------------------------------------|
G|-5-5-5-5-5-5/8-8-8-8-8-8/1-1-1-1-1-1/3-3-3-3-3-3-|
C|-5-5-5-5-5-5/8-8-8-8-8-8/1-1-1-1-1-1/3-3-3-3-3-3-|

Riff C2 (x2)
D|-------------------------------------------------|
A|-------------------------------------------------|
F|-------------------------------------------------|
C|-------------------------------------------------|
G|-5-555-555/88-8-88/1-111-111/33-3-33-------------|
C|-5-555-555/88-8-88/1-111-111/33-3-33-------------|


Then start from Riff A with 2nd guitar playing Riff D (Clean)
[ Tab from: http://www.guitartabs.cc/tabs/b/bennett_and_clarkson/amoeba_tab_ver_2.html ]
Riff D (Clean) x2
D|-----------------------------------------------------------------|
A|-----------------------------------------------------------------|
F|---------9---------------9---------------9---------------9-------|
C|-----9-----9---9-----9-----9---9-----9-----9---9-----9-----9---9-|
G|---7---7-----7-----7---7-----7-----7---7-----7-----7---7-----7---|
C|-7---------------7---------------7---------------7---------------|

D|-----------------------------------------------------------------|
A|-----------------------------------------------------------------|
F|---------7---------------7---------------7---------------7-------|
C|-----7-----7---7-----7-----7---7-----7-----7---7-----7-----7---7-|
G|---5---5-----5-----5---5-----5-----5---5-----5-----5---5-----5---|
C|-5---------------5---------------5---------------5---------------|


Riff D2 x 2
D|-----------------------------------------------------------------|
A|-----------------------------------------------------------------|
F|---------3-----3---------3-----3---------5-----5---------5-----5-|
C|-----1-----1---------1-----1---------3-----3---------3-----3-----|
G|---1---1-----1-----1---1-----1-----3---3-----3-----3---3-----3---|
C|-1---------------1---------------3---------------3---------------|

D|-----------------------------------------------------------------|
A|-----------------------------------------------------------------|
F|---------9-----9---------9-----9---------9-----9---------9-----9-|
C|-----9-----9---------9-----9---------7-----7---------7-----7-----|
G|---7---7-----7-----7---7-----7-----7---7-----7-----7---7-----7---|
C|-7---------------7---------------7---------------7---------------|


Chorus (Heavy Distortion)

Riff C (x2)
D|-------------------------------------------------|
A|-------------------------------------------------|
F|-------------------------------------------------|
C|-------------------------------------------------|
G|-5-5-5-5-5-5/8-8-8-8-8-8/1-1-1-1-1-1/3-3-3-3-3-3-|
C|-5-5-5-5-5-5/8-8-8-8-8-8/1-1-1-1-1-1/3-3-3-3-3-3-|

Riff C2 (x2)
D|-------------------------------------------------|
A|-------------------------------------------------|
F|-------------------------------------------------|
C|-------------------------------------------------|
G|-5-555-555/88-8-88/1-111-111/33-3-33-------------|
C|-5-555-555/88-8-88/1-111-111/33-3-33-------------|


Still to be Tabbed: Bridge, Outro.
Comments