Benevolent Child - Drive My Car Away Chords & Tabs

 

Drive My Car Away Chords & Tabs

Benevolent Child Chords & Tabs

Version: 1 Type: Tab 0 ratings
1 star 2 stars 3 stars 4 stars 5 stars
comments

Drive My Car Away Tab

Drive My Car Away 
By Benevolent Child


THIS IS MY EVER FIRST ROCK SONG I MADE AND TAB!!! 
I HOPE U LIKE IT!!

http://www.soundclick.com/bands/3/benevolentchildmusic.htm

intro, versus and chorus

e--------------------------------------------------------
b-0-----1-----3-----0-----1----0-----1-----3-----0-----1-
g---0-----0-----0-----0----------0-----0-----0-----0-----
D--------------------------------------------------------
A-3---3-----3-----3-----3----3-3---3-----3-----3-----3---
E--------------------------------------------------------
[ Tab from: http://www.guitartabs.cc/tabs/b/benevolent_child/drive_my_car_away_tab.html ]
e--------------------------------------------------------
b-0-----1-----3-----0-----1----0-----1-----3-----0-----1-
g---2-----2-----2-----2----------2-----2-----2-----2-----
D--------------------------------------------------------
A-0---0-----0-----0-----0----0-0---0-----0-----0-----0---
E--------------------------------------------------------

chorus

Guitar 1

x  x  x  x
x  5  5  5
5  5  5  5
5  3  0  3
3  0  0  0
x  x  x  x

Guitar 2

3  7  5  7
5  8  7  8
5  7  7  7
5  9  7  9
3  7  5  7
x  x  x  x

during versus there are harmonic keys

e-----------------
b-12h-------19h---
g---12h--------19h
D-----------------
A-----------------
E-----------------

instead of 19h, it can also be 7h

the car ran off yesterday night 
when we had a another fight 
u slept with ur ex and i cried 
ur lucky i never had my knife 
i wash da pain away 
with cryin tears u must pay

I dont care about u 
u dont care about me 
drive my car away
drive my car away 

i look at my bloody hands 
and see a little bit of u 
i cry...i cry....
all i want to do is fly
my mirror does not reflect anymore
thanx to u life is out da door

I dont care about u 
u dont care about me 
drive my car away
drive my car away 
Comments