Benediction - Night Fear Chords & Tabs

 

Night Fear Chords & Tabs

Benediction Chords & Tabs

Version: 1 Type: Tab 0 ratings
1 star 2 stars 3 stars 4 stars 5 stars
comments

Night Fear Tab

   
join the death/black tab mailing list my emailing 

BENEDICTION - "Nightfear"
from the album 'Transcend the Rubicon'
Tabbed by AJMB (toti@caleida.pt)

Tune down to D (1 complete step)

RIFF1:
   E     F   G G#G F E            G     G#  G   E F     F#  F   E
|------------------------------------------------------------------|
|------------------------------------------------------------------|
|------------------------------------------------------------------|
|------------------------------------------------------------------|
|--2-----3---5/6-5-3--------------5-----6-6-5-5---3-----4-4-3-3----|
|--0-000-1-0-3/4-3-1-000-000-0000-3-333-4-4-3-3-0-1-111-2-2-1-1-0--|

RIFF2:
   E      F  E  G  G# G  F  E              G      G#   G    E
|------------------------------------------------------------------|
|------------------------------------------------------------------|
|------------------------------------------------------------------|
|------------------------------------------------------------------|
|------------------------------------------------------------------|
|--000000-11-00-33-44-33-11-00000000000000-333333-4444-3333-00-----|

       F      F#   F    E
      ----------------------|
      ----------------------|
      ----------------------|
      ----------------------|
      ----------------------|
      -111111-2222-1111-00--|

RIFF3:
   E     F   G G#G F E            D      A#     A    C#     A
|------------------------------------------------------------------|
|------------------------------------------------------------------|
|------------------------------------------------------------------|
|------------------------------------------------------------------|
|--2-----3---5/6-5-3--------------555555-111111-0000-444444-000000-|
|--0-000-1-0-3/4-3-1-000-000-0000----------------------------------|

       A#   E     F   G G#G F E            C      G      B
      -------------------------------------------------------------|
      -------------------------------------------------------------|
      -------------------------------------------------------------|
      -------------------------------------------------------------|
      ------2-----3---5/6-5-3--------------333333--------2222------|
      -1111-0-000-1-0-3/4-3-1-000-000-0000--------333333-----------|

        C
      --------------------|
      --------------------|
      --------------------|
      --------------------|
      --3333333333333333--|
      --------------------|

RIFF4:
   E     F   G G#G F E             C   A#
|------------------------------------------------------------------|
|------------------------------------------------------------------|
|------------------------------------------------------------------|
|----------------------------------5---3---------------------------|
|--2-----3---5/6-5-3---------------3---1---------------------------|
|--0-000-1-0-3/4-3-1-000-000-0000----------------------------------|
[ Tab from: http://www.guitartabs.cc/tabs/b/benediction/night_fear_tab.html ]
RIFF5:
   E  B  A# E  B  A# E  B  F  C  B  F  C  B  E  F
|--------------------------------------------------|
|--------------------------------------------------|
|--------------------------------------------------|
|--------------------------------------------22-33-|
|-----22-11----22-11----22----33-22----33-22-------|
|--00-------00-------00----11-------11-------------|

RIFF6:
   C C#C G F#  G F#  C C#C G F#  B
|-----------------------------------|
|-----------------------------------|
|-----------------------------------|
|--5/6-5-------------5/6-5-------4--|
|--3/4-3-5-4-4-5-4-4-3/4-3-5-4-4-2--|
|--------3-2-2-3-2-2-------3-2-2----|

RIFF7:
   E     F   G G#G F E     G     G#  G   E F     F#  F   E
|-----------------------------------------------------------
|-----------------------------------------------------------
|-----------------------------------------------------------
|-----------------------------------------------------------
|--2-----3---5/6-5-3---2---5-----6-6-5-5---3-----4-4-3-3----
|--0-000-1-0-3/4-3-1-0-0---3-333-4-4-3-3-0-1-111-2-2-1-1-0--

     E     F   G G#G F E                G     G#  G   E F     F#F
   ------------------------------------------------------------------|
   ------------------------------------------------------------------|
   ------------------------------------------------------------------|
   ------------------------------------------------------------------|
   --2-----3---5/6-5-3---2--------------5-----6-6-5-5---3-3-3-4-3-3--|
   --0-000-1-0-3/4-3-1-0-0ó(pick slide)-3-333-4-4-3-3-0-1-1-1-2-1-1--|

RIFF8:
   E     F   G G#G F E
|-----------------------|
|-----------------------|
|-----------------------|
|-----------------------|
|--2-----3---5/6-5-3-2--|
|--0-000-1-0-3/4-3-1-0--|

SONG STRUCTURE:
RIFF1 (2X)
RIFF2 (2X)
RIFF3 (2X)
RIFF4 (1X)
RIFF1 (3X)
RIFF5 (4X)
RIFF6 (2X)
RIFF5 (4X)
RIFF6 (2X)
RIFF5 (4X)
RIFF7 (1X)
RIFF2 (2X)
RIFF8 (1X)

LYRICS:
Thereís a disease a wrenching bane
Adverse twisted minds
Grip of fear within the flesh
Is eating you alive
Ruins the lives of innocent
A fitful waking sleep
Sadly the world it shakes itís head
And begins to weep

And now to sleep perchance to dream
But you cannot hear your cries
Memories run like rivers flow
Blackened waters of the mind
Phobias, fear of crypts and caves
Oblivion denied

All you see such a lie to behold
Born through a cradle of time
Stomach wrenching, sweat runs cold
Pointless nightmares of bizarre and sublime

Summon them now, arise your fears
Release the pain or drown
Acidic noise like knell of doom
Darkened passages revealing gloom
Nightfear

Creeping on the skulls of man
Softly at the dawn
Sharpened edge of nightfears blade
Pray you now for rising morn

Divine faith a childish prayer
Drilled into you from birth
Yet nightfear continues on
Returning with a curse
Now the fortitudes in light
But darkened eve draws near
Dawning on a ghoulish thought
The night belongs to fear

Music and Lyrics: BENEDICTION
Comments