Benediction - Artifacted Chords & Tabs

 

Artifacted Chords & Tabs

Benediction Chords & Tabs

Version: 1 Type: Tab 0 ratings
1 star 2 stars 3 stars 4 stars 5 stars
comments

Artifacted Tab

   
ARTIFACTED/SPIT FORTH - Benediction - Transcend The Rubicon

Rhythm Guitar Transcribed on Bass
Tuning (low - High): D G C F


INTRO DRUM FILL

A1
|-----------------------------------------------------------------|
|-----------------------------------------------------------------|
|-6-------7-------3-----------3---2-------------------------------|
|-4-------5-------1-----------1---0-------------------------------|

B1
|-----------------------------------------------------------------|
|-----------------------------------------------------------------|
|-6-------7-------3-----------2---5---3---2-----------------------|
|-4-------5-------1-----------0---3---1---0-----------------------|
                              pm..........

A2
|-----------------------------------------------------------------|
|-----------------------------------------------------------------|
|-6-------7-------3---3---3---3---2-------------------------------|
|-4-------5-------1---1---1---1---0-------------------------------|
                  pm..............

Repeat B1

A3
|-----------------------------------------------------------------|
|-----------------------------------------------------------------|
|-6-------7-------------------------------------------------------|
|-4-------5-------1-1-1-1-1-1-1-1-0-0-0-0-0-0-0-0-0-0-0-0-0-0-0-0-|
                  pm..............................................

B2
|-----------------------------------------------------------------|
|-----------------------------------------------------------------|
|-----------------------------2---5---3---------------------------|
|-4-4-4-4-5-5-5-5-1-1-1-1-1-1-0---3---1---0-0-0-0-0-0-0-0-0-0-0-0-|
                  pm..............................................

A4
|-----------------------------------------------------------------|
|-----------------------------------------------------------------|
|-----------------------------------------------------------------|
|-4-4-4-4-5-5-5-5-1-1-1-1-1-1-1-1-0-0-0-0-0-0-0-0-0-0-0-0-0-0-0-0-|
                  pm..............................................

Repeat B2
Repeat A1, B1, A2 & B1
Pause

A5
|-----------------------------------------------------------------|
|-----------------------------------------------------------------|
|-6-------7-------------------------------------------------------|
|-4-------5-------1---1---1-1-1-1-0---0---0-0-0-0-0---0---0-0-0-0-|
                  pm..............................................

B3
|-----------------------------------------------------------------|
|-----------------------------------------------------------------|
|-----------------------------2---5---3---------------------------|
|-4---4---5-5-5-5-1---1---1-1-0---3---1---0---0---0-0-0-0-0-0-0-0-|
                  pm..............................................

A6
|-----------------------------------------------------------------|
|-----------------------------------------------------------------|
|-----------------------------------------------------------------|
|-4-4-4-4-5-5-5-5-1---1---1-1-1-1-0---0---0-0-0-0-0---0---0-0-0-0-|
                  pm..............................................

Repeat B3
Repeat A1, B1, A2 & B1 (Let last chord ring)

C1
|-----------------------------------------------------------------|
|-----------------5-5-5-5-----------------------------------------|
|-2-2-2-2-2-2-2-2-3-3-3-3-5-5-5-5-7-7-7-7-7-7-7-7-3-3-3-3-3-3-3-3-|
|-0-0-0-0-0-0-0-0---------3-3-3-3-5-5-5-5-5-5-5-5-1-1-1-1-1-1-1-1-|
  pm..............................................................

C2
|-----------------------------------------------------------------|
|-----------------5-5-5-5---------7-7-7-7-7-7-7-7-----------------|
|-2-2-2-2-2-2-2-2-3-3-3-3-5-5-5-5-5-5-5-5-5-5-5-5-7-7-7-7-3-3-3-3-|
|-0-0-0-0-0-0-0-0---------3-3-3-3-----------------5-5-5-5-1-1-1-1-|
  pm..............................................................

Repeat (C1 + C2)

D
|-----------------------------------------------------------------|
|-----------------4---3-------------------------------------------|
|-2---3---2-------2---1---2---3---4---3---4-------3h4p3h4p3h4p3h4-|
|-0---1---0---0-0---------0---1---2---1---2---2-2-----------------|
  pm..............        pm......................
[ Tab from: http://www.guitartabs.cc/tabs/b/benediction/artifacted_tab.html ]
Repeat D x 3
Repeat (C1 + C2) x 2
Repeat D x 4

E1          Play 2 Times
|---------------------------------6-------------------------------|
|-2---------------4---------------6-------------------------------|
|-2---------------2-------4-------4---------------4-------3-------|
|-0-----------------------2-----------------------2-------1-------|

E2          Play 4 Times
|-----------------------------------------------------------------|
|-----------------4---------------6-------------------------------|
|-2---------------2-------4-------4-------4-4-4-4-4-------3-------|
|-0-------0-0-0-0---------2-----------------------2-------1-------|
          pm......                        pm......

E3          Play 2 Times
|---------------------------------6-------------------------------|
|-2---------------4---------------6-------------------------------|
|-2---------------2-------4-------4---------------4---4---3---3---|
|-0-----------------------2-----------------------2---2---1---1---|
          pm..............

Repeat E2 x 4
Repeat E3 x 2

F1
|-----------------------------------------------------------------|
|-----------------------------------------------------------------|
|---------------------------------2-2-2-2-2-2-2-2-1-1-1-1-5-5-5-5-|
|-0-0-0-0-0-0-0-0-2-2-2-2-1-1-1-1---------------------------------|
  pm..............................................................

F2
|-----------------------------------------------------------------|
|-----------------------------------------------------------------|
|-4-4-4-4-4-4-4-4-------------------------------------------------|
|-----------------5-5-5-5-4-4-4-4-2-2-2-2-2-2-2-2-3-3-3-3-1-1-1-1-|
  pm..............................................................

Repeat (F1 + F2) x 3

G1
|-----------------7-------6-----------------------6-------5-------|
|-----------------5-------4-----------------------4-------3-------|
|-5-5-5-5-5-5-5-5-----------------4-4-4-4-4-4-4-4-----------------|
|-----------------------------------------------------------------|
  pm..............................................................

G2
|-----------------------------------------------------------------|
|-----------------------------------------------------------------|
|-----------------------------------------------------------------|
|-5-5-5-5-5-5-5-5-5-5-5-5-5-5-5-5-6-6-6-6-6-6-6-6-6-6-6-6-6-6-6-6-|
  pm..............................................................

Repeat (G1 + G2) x 3
Repeat (F1 + F2) x 4
Repeat G1

G3
|-----------------------------------------------------------------|
|-----------------------------------------------------------------|
|-7---7-----------7---7-----------8---8-----------8---8-----------|
|-5---5---5-5-5-5-5---5---5-5-5-5-6---6---6-6-6-6-6---6---6-6-6-6-|
         pm.......        pm......        pm......        pm......

Repeat (G1 + G3) x 3

H1          Play 2 Times
|-----------------------------------------------------------------|
|-------------------------------------------------3---------------|
|-2-------5---3---4---------------2-------5---3---1---------------|
|-0-------3---1---2---------------0-------3---1-------------------|

H         Play 12 Times
|-----------------------------------------------------------------|
|-------------------------------------------------3-------3-------|
|-2-------5---3---4-------4-------2-------5---3---1-------1-------|
|-0-----0-3---1---2-----0-2-----0-0-----0-3---1---------0-------0-|
        pm         pm   pm      pm    pm      pm

Repeat (F1 + F2) x 4
Repeat (G1 + G3) x 4

Fill
|---------------|
|---------------|
|---------------|
|-0-/-\-0-/-\-x-|

H1
|-----------------------------------------------------------------|
|-----------------------------------------------------------------|
|-----------------------------------------------------------------|
|-6-6-6-6-6-6-6-6-6-6-6-6-6-6-6-6-5-5-5-5-5-5-5-5-5-5-5-5-5-5-5-5-|
  pm..............................................................

H2
|-5-------6-----------------------6-------7-----------------------|
|-3-------4-----------------------4-------5-----------------------|
|-----------------4-4-4-4-4-4-4-4-----------------5-5-5-5-5-5-5-5-|
|-----------------------------------------------------------------|
                  pm..............                pm..............

Repeat (H1 + H2) x 3

Outro
|-----|
|-----|
|-8---|
|-6---|


The End.

Erik
----------------------
erik_heino@hotmail.com
Comments