Bender - Isolate Chords & Tabs

 

Isolate Chords & Tabs

Bender Chords & Tabs

Version: 3 Type: Tab 0 ratings
1 star 2 stars 3 stars 4 stars 5 stars
comments

Isolate Tab

   
Song: Isolate - Bender
Ablum: Jehova's Hitlist
Tabbed by: My Elemenohpee
Email: milezero_music@yahoo.com

| /  slide up
| \  slide down
| h  hammer-on
| p  pull-off
| ~  vibrato
| +  harmonic
| x  Mute note
| ^  Palm Mute

Tuning:eBGDAD -- or -- eb Bb Gb Db Ab Db(this is the real tuning)


Verse/Intro x3
e|---------------------------------------------------------------------------|
B|---------------------------------------------------------------------------|
G|---------------------------------------------------------------------------|
D|9-9-9-11-11-11-9-9-9-99----5-5-5-7-7-7-5-5-5-5-5----0-0-0-4-4-5-4-4-4-4-4--|
A|9-9-9-9--9--9--9-9-9-99----5-5-5-5-5-5-5-5-5-5-5----0-0-0-0-0-0-0-0-0-0-0--|
D|9-9-9-9--9--9--9-9-9-99----5-5-5-5-5-5-5-5-5-5-5----0-0-0-0-0-0-0-0-0-0-0--|

e|-------------------------|
B|-------------------------|
G|-------------------------|
D|--2-2-2-4-4-5-4-4-4-4-4--|
A|--2-2-2-2-2-2-2-2-2-2-2--|
D|--2-2-2-2-2-2-2-2-2-2-2--|

Interlude x1(distortion)
e|---------------|
B|---------------|
G|---------------|
D|5-5-5-5-5-5-5-5|
A|5-5-5-5-5-5-5-5|
D|5-5-5-5-5-5-5-5|

Verse/Intro x3(first time distortion)
e|---------------------------------------------------------------------------|
B|---------------------------------------------------------------------------|
G|---------------------------------------------------------------------------|
D|9-9-9-11-11-11-9-9-9-99----5-5-5-7-7-7-5-5-5-5-5----0-0-0-4-4-5-4-4-4-4-4--|
A|9-9-9-9--9--9--9-9-9-99----5-5-5-5-5-5-5-5-5-5-5----0-0-0-0-0-0-0-0-0-0-0--|
D|9-9-9-9--9--9--9-9-9-99----5-5-5-5-5-5-5-5-5-5-5----0-0-0-0-0-0-0-0-0-0-0--|

e|-------------------------|
B|-------------------------|
G|-------------------------|
D|--2-2-2-4-4-5-4-4-4-4-4--|
A|--2-2-2-2-2-2-2-2-2-2-2--|
D|--2-2-2-2-2-2-2-2-2-2-2--|


Interlude x1(distortion)
e|---------------|
B|---------------|
G|---------------|
D|5-5-5-5-5-5-5-5|
A|5-5-5-5-5-5-5-5|
D|5-5-5-5-5-5-5-5|

Chorus x2(distortion)
e|-------------------------------------------------------------------|
B|-------------------------------------------------------------------|
G|7-7-7-7-7-7-7-7-7-7------------------------------------------------|
D|7-7-7-7-7-7-7-7-7-7----7-7-7-7-7-7-7-7-7-7----2-2-2-2-2-2-2-2-2-2--|
A|5-5-5-5-5-5-5-5-5-5----7-7-7-7-7-7-7-7-7-7----2-2-2-2-2-2-2-2-2-2--|
D|-----------------------7-7-7-7-7-7-7-7-7-7----2-2-2-2-2-2-2-2-2-2--| 

e|-----------------------|
B|-----------------------| 
G|-----------------------| 
D|--5-5-5-5-5-5-5-5-5-5--|
A|--5-5-5-5-5-5-5-5-5-5--|
D|--5-5-5-5-5-5-5-5-5-5--|

Interlude2
e|----------------------|----------------------|----------------------|
B|----------------------|----------------------|----------------------|
G|----------------------|----------------------|----------------------|
D|--0-0-0-5-0-0-0-5--5--|--0-0-0-5-0-0-0-5--5--|----0-0-5-0-0-0-5--5--|
A|--0-0-0-5-0-0-0-5--5--|--0-0-0-5-0-0-0-5--5--|----0-0-5-0-0-0-5--5--|
D|--0-0-0-5-0-0-0-5--5--|--0-0-0-5-0-0-0-5--5--|----0-0-5-0-0-0-5--5--|

e|----------------------|
B|----------------------|
G|----------------------|
D|--0-0-0-5-0-0-0-5--5--|
A|--0-0-0-5-0-0-0-5--5--|
D|--0-0-0-5-0-0-0-5--5--|
[ Tab from: http://www.guitartabs.cc/tabs/b/bender/isolate_tab_ver_3.html ]
Verse/Intro x4(last two times distortion)
e|--------------------------------------------------------------------------------------|
B|--------------------------------------------------------------------------------------|
G|--------------------------------------------------------------------------------------|
D|9-9-9-11^-11^-11^-9-9-9-99----5-5-5-7^-7^-7^-5-5-5-5-5----0-0-0-4^-4^-5^-4^-4^-4-4-4--|
A|9-9-9-9^--9^--9^--9-9-9-99----5-5-5-5^-5^-5^-5-5-5-5-5----0-0-0-0^-0^-0^-0^-0^-0-0-0--|
D|9-9-9-9^--9^--9^--9-9-9-99----5-5-5-5^-5^-5^-5-5-5-5-5----0-0-0-0^-0^-0^-0^-0^-0-0-0--|

e|------------------------------|
B|------------------------------|
G|------------------------------|
D|--2-2-2-4^-4^-5^-4^-4^-4-4-4--|
A|--2-2-2-2^-2^-2^-2^-2^-2-2-2--|
D|--2-2-2-2^-2^-2^-2^-2^-2-2-2--|


Interlude x1(distortion)
e|---------------|
B|---------------|
G|---------------|
D|5-5-5-5-5-5-5-5|
A|5-5-5-5-5-5-5-5|
D|5-5-5-5-5-5-5-5|

Chorus x4(distortion)
e|-------------------------------------------------------------------|
B|-------------------------------------------------------------------|
G|7-7-7-7-7-7-7-7-7-7------------------------------------------------|
D|7-7-7-7-7-7-7-7-7-7----7-7-7-7-7-7-7-7-7-7----2-2-2-2-2-2-2-2-2-2--|
A|5-5-5-5-5-5-5-5-5-5----7-7-7-7-7-7-7-7-7-7----2-2-2-2-2-2-2-2-2-2--|
D|-----------------------7-7-7-7-7-7-7-7-7-7----2-2-2-2-2-2-2-2-2-2--| 

e|-----------------------|
B|-----------------------| 
G|-----------------------| 
D|--5-5-5-5-5-5-5-5-5-5--|
A|--5-5-5-5-5-5-5-5-5-5--|
D|--5-5-5-5-5-5-5-5-5-5--|

Interlude2
e|----------------------|----------------------|----------------------|
B|----------------------|----------------------|----------------------|
G|----------------------|----------------------|----------------------|
D|--0-0-0-5-0-0-0-5--5--|--0-0-0-5-0-0-0-5--5--|----0-0-5-0-0-0-5--5--|
A|--0-0-0-5-0-0-0-5--5--|--0-0-0-5-0-0-0-5--5--|----0-0-5-0-0-0-5--5--|
D|--0-0-0-5-0-0-0-5--5--|--0-0-0-5-0-0-0-5--5--|----0-0-5-0-0-0-5--5--|

e|----------------------|
B|----------------------|
G|----------------------|
D|--0-0-0-5-0-0-0-5--5--|
A|--0-0-0-5-0-0-0-5--5--|
D|--0-0-0-5-0-0-0-5--5--|

Interlude3 x4
e|--------------------X-X-X-X-X-X--| 
B|--------------------3-3-3-3-3-3--| 
G|--------------------2-2-2-2-2-2--| 
D|--9-9-9-7-7-7-5-5-5-0-0-0-0-0-0--| 
A|--9-9-9-7-7-7-5-5-5-0-0-0-0-0-0--| 
D|--9-9-9-7-7-7-5-5-5-0-0-0-0-0-0--|

Interlude4 x4 
e|-------------------------------|
B|-------------------------------|
G|-------------------------------|
D|--0-0-0-2-2-2-2-5-5-5-7-7-5-5--|
A|--0-0-0-2-2-2-2-5-5-5-5-5-5-5--|
D|--0-0-0-2-2-2-2-5-5-5-5-5-5-5--|

LYRICS

First Verse

Shades of night 
frame the time
sister, brother
cut to code
all alone
built up, level

Lost your way
back and they
cut off
my friends
ocean wide
all went dry
reflection
lethal

Chorus

And if you ever have to leave
leave yourself out side the door
and if you ever have to leave this 
perfect world, lord.

Second Verse

Held upright
hands are tied
motion sickness
breating quiet
all the time
sister, brother

It might happen over night
It's times like these I'm not surprised
And my hand, an open knife
It's caused creations fire.

Chorus x2

Interlude 3

Isolation
With you
It's my own
Self war

Interlude 4

Its my life
Its my life
Its my life
I do what I want
Its my life

Chorus x2
Comments