Bender - Isolate Chords & Tabs

 

Isolate Chords & Tabs

Bender Chords & Tabs

Version: 2 Type: Tab 0 ratings
1 star 2 stars 3 stars 4 stars 5 stars
comments

Isolate Tab

Artist: Bender
Title: Isolate

Tuning: Drop D 
DADGBe

This song is for all of those who could never find this tab.
Well I sat down for a good hour gettin this song right down to the last note
so here it is.  Most people know it from the video game ATV Offroad Fury I.

Verse/Intro

|-----------------------------------------------------------------------------|
|-----------------------------------------------------------------------------|
|-----------------------------------------------------------------------------|
|--9-9-9-11-11-11--9-9-9-9-9---5-5-5-7-7-7-5-5-5-5-5---0-0-0-4-4-5-4-4-4-4-4--|
|--9-9-9-9--9--9---9-9-9-9-9---5-5-5-5-5-5-5-5-5-5-5---0-0-0-0-0-0-0-0-0-0-0--| 
|--9-9-9-9--9--9---9-9-9-9-9---5-5-5-5-5-5-5-5-5-5-5---0-0-0-0-0-0-0-0-0-0-0--|

|-------------------------| 
|-------------------------| 
|-------------------------|   
|--2-2-2-4-4-5-4-4-4-4-4--| 
|--2-2-2-2-2-2-2-2-2-2-2--|          Repeat as necessary
|--2-2-2-2-2-2-2-2-2-2-2--| 

Chorus

|-----------------------------------------------------------------------------|
|-----------------------------------------------------------------------------|
|--7-7-7-7-7-7-7-7-7-7--------------------------------------------------------|
|--7-7-7-7-7-7-7-7-7-7---7-7-7-7-7-7-7-7-7-7---2-2-2-2-2-2-2-2-2-2------------|
|--5-5-5-5-5-5-5-5-5-5---7-7-7-7-7-7-7-7-7-7---2-2-2-2-2-2-2-2-2-2------------|
|------------------------7-7-7-7-7-7-7-7-7-7---2-2-2-2-2-2-2-2-2-2------------| 

|-----------------------|
|-----------------------| 
|-----------------------| 
|--5-5-5-5-5-5-5-5-5-5--|
|--5-5-5-5-5-5-5-5-5-5--|
|--5-5-5-5-5-5-5-5-5-5--|

Bridge/Outro
[ Tab from: http://www.guitartabs.cc/tabs/b/bender/isolate_tab_ver_2.html ]
|-----------------------X-X-X-X-X-X------------| 
|-----------------------3-3-3-3-3-3------------| 
|-----------------------2-2-2-2-2-2------------| 
|--9-9-9--7-7-7--5-5-5--0-0-0-0-0-0------------| 
|--9-9-9--7-7-7--5-5-5--0-0-0-0-0-0------------| 
|--9-9-9--7-7-7--5-5-5--0-0-0-0-0-0------------| 

For this part use a lot of distortion.  Use the vibrato effect on your amp at
around 7 or 8.

|------------------------------------| 
|------------------------------------| 
|------------------------------------| 
|--0-0-0-5-0-0-0-5-5-----------------|  Repeat as necessary
|--0-0-0-5-0-0-0-5-5-----------------| 
|--0-0-0-5-0-0-0-5-5-----------------| 

Before the ending play this part quietly

|-----------------------------------------| 
|-----------------------------------------| 
|-----------------------------------------| 
|--0-0-0--2-2-2--5-5-5-7-7-5-5------------| Repeat as necessary
|--0-0-0--2-2-2--5-5-5-5-5-5-5------------| 
|--0-0-0--2-2-2--5-5-5-5-5-5-5------------| 

Listen to the song to get timing and where to put all the parts.

Verse 1

Shades of night 
frame the time
sister, brother
cut to code
all alone
built up, level

Lost your way
back and they
cut off
my friends
ocean wide
all went dry
reflection
lethal

Chorus

And if you ever have to leave
leave yourself out side the door
and if you ever have to leave this 
perfect world, lord.

Verse 2

Held upright
hands are tied
motion sickness
breating quiet
all the time
sister, brother

Chorus (X2)

Bridge

Its my life
Its my life
Its my life
I do what I want
Its my life

Chorus 

Questions or comments dmcphedran@hotmail.com
Comments