Ben Webster - Boogie Woogie Chords & Tabs

 

Boogie Woogie Chords & Tabs

Ben Webster Chords & Tabs

Version: 1 Type: Tab 0 ratings
1 star 2 stars 3 stars 4 stars 5 stars
comments

Boogie Woogie Tab

This is just  a  classical blues song  I learned plz rate and enjoy=)

          Do this 2 times
|----------------------------------------------------------------------|
|----------------------------------------------------------------------|
|----------------------------------------------------------------------|
|----------------------------------------------------------------------|
|-------------------2-2----4-4---5-5----4-4---2-2----------------------|
|--0-0----4-4-------------------------------------------4-4------------|

       then do this once
|----------------------------------------------------------------------|
|----------------------------------------------------------------------|
|----------------------------------------------------------------------|
|------------------2-2----4-4---5-5----4-4---2-2-----------------------|
|--0-0----4-4------------------------------------------4-4-------------|
|----------------------------------------------------------------------|
[ Tab from: http://www.guitartabs.cc/tabs/b/ben_webster/boogie_woogie_tab.html ]
   then back to this again
|----------------------------------------------------------------------|
|----------------------------------------------------------------------|
|----------------------------------------------------------------------|
|----------------------------------------------------------------------|
|------------------2-2----4-4---5-5---4-4---2-2------------------------|
|--0-0----4-4-----------------------------------------4-4--------------|

then to finish it off do this
|----------------------------------------------------------------------|
|----------------------------------------------------------------------|
|----------------------------------------------------------------------|
|-------------------4-4----6-4-------------------2-2----4-2------------|
|--2-2----6-6--------------------0-0----4-4----------------------------|
|----------------------------------------------------------------------|

then u do this again and your done

|----------------------------------------------------------------------|
|----------------------------------------------------------------------|
|----------------------------------------------------------------------|
|----------------------------------------------------------------------|
|------------------2-2----4-4----5-5----4-4----2-2---------------------|
|--0-0----4-4--------------------------------------------4-4v----------|

end
Comments