Ben Kweller - Wasted And Ready Chords & Tabs

 

Wasted And Ready Chords & Tabs

Ben Kweller Chords & Tabs

Version: 2 Type: Tab 0 ratings
1 star 2 stars 3 stars 4 stars 5 stars
comments

Wasted And Ready Tab

   
--------------------------
} Song: wasted and ready {
} Artist: ben kweller    {
--------------------------

pretty easy solo

b: bend
X: mute with left hand (for righties)

iono i tried to find the solo for this song, and none of them sounded the same as the 
im not sure if this is how ben playes it, but it sounds a lot like the song

you need to know how to bend like really really hard in this solo

e|-------X-X-X-X-------X-X-X-X--------------------------------|
B|-------X-X-X-X-------X-X-X-X--------------------------------|
G|--2b5--X-X-X-X--2b5--X-X-X-X--------------------------------|
D|-------X-X-X-X-------X-X-X-X-----7--5--7--5--8--8--7--5-----|
A|-------X-X-X-X-------X-X-X-X-----7--5--7--5--8--8--7--5-----|
E|-------X-X-X-X-------X-X-X-X-----5--3--5--3--6--6--5--3-----|
[ Tab from: http://www.guitartabs.cc/tabs/b/ben_kweller/wasted_and_ready_tab_ver_2.html ]
e|-------X-X-X-X-------X-X-X-X--------------------------------|
B|--2b5--X-X-X-X--2b5--X-X-X-X--------------------------------|
G|--2b5--X-X-X-X--2b5--X-X-X-X--------------------------------|
D|-------X-X-X-X-------X-X-X-X-----7--5--7--5--8--8--7--5-----|
A|-------X-X-X-X-------X-X-X-X-----7--5--7--5--8--8--7--5-----|
E|-------X-X-X-X-------X-X-X-X-----5--3--5--3--6--6--5--3-----|

e|--5b7-----5b7-----5b7-----5b7-------------------------------|
B|--8b10----8b10----8b10----8b10------------------------------|
G|------------------------------------------------------------|
D|---------------------------------7--5--7--5--8--8--7--5-----|
A|---------------------------------7--5--7--5--8--8--7--5-----|
E|---------------------------------5--3--5--3--6--6--5--3-----|

e|--11b12---11b12---11b12---11b12-----------------------------|
B|------------------------------------------------------------|
G|------------------------------------------------------------|
D|---------------------------------7--5--7--5--8--8--7--5-----|
A|---------------------------------7--5--7--5--8--8--7--5-----|
E|---------------------------------5--3--5--3--6--6--5--3-----|

comments or questions?
email: controlALTdelete_1025@hotmail.com
aim: aka grindking
website: http://profiles.myspace.com/users/14174087
Comments