Ben Kweller - Lizzy Chords & Tabs

 

Lizzy Chords & Tabs

Ben Kweller Chords & Tabs

Version: 2 Type: Tab 0 ratings
1 star 2 stars 3 stars 4 stars 5 stars
comments

Lizzy Tab

   
----------------------------------------------------------------------------
			     LIZZY - Ben Kweller
----------------------------------------------------------------------------

http://www.benkweller.com/

    The Inro to Lizzy by Ben Kweller is pretty damn cool. I've seen some other
tabs but none of them are 100% correct. Its actually pretty easy to play and if
youlearn it from the other tabs, it might sound like the song but it wont be as
good as the real thing.

    You need to finger pick this intro if you havent figured that out already.
The most important part of this little tab, though, is that the notes that you
are plucking with your thumb have to be on the down beat and they must continually
play throughtout the whole intro. I wrote out the tab in relative time, meaning
the way it looks from left to right is basically the rhythm it should be played.      


---------------------------------------------------------------------------

Tabbed by: Deinem
Email: dan_ny123@hotmail.com

Tuning:Standard (Eadgbe)

[ Tab from: http://www.guitartabs.cc/tabs/b/ben_kweller/lizzy_tab_ver_2.html ]
e|------------------------------------------------|
B|-------------------3-----0-----3-----0----------|
G|--4p2p0------------4-----0-----4-----0----------|
D|--------0-2--------5-----2-----5-----2----------|
A|------------------------------------------------|
E|---------------0---0---0---0---0---0---0---0----|

e|-----------------------------------------|
B|-----------------------------------------|
G|--------0-----2-----4---2---0-2----------|
D|-----------------------------------------|
A|----3---3---3---3---3---3---3---3--------|
E|-----------------------------------------|

e|--------5/----0--------------------------|
B|--------5/----0-----5/----1--------------|
G|--------------------5/----2--------------|
D|-----------------------------------------|
A|----0---0---0---0---0---0---0---0--------|
E|-----------------------------------------|

e|-----------------------------------------|
B|-----------------------------------------|
G|--------0-----2--------------4p2p0-------|
D|-------------------0h1-------------0-2---|
A|----2---2---2---2------2-----------------|
E|-----------------------------------------|



| /  slide up
| \  slide down
| h  hammer-on
| p  pull-off
| ~  vibrato
| +  harmonic
| x  Mute note


hope you can figure it out. This little intro is really fun to play. Ben Kweller
kicks butt. feel free to email or pm me. Email adress is: dan_ny123@hotmail.com.


\m/



============================================================================
Comments