Ben Kweller - Lizzy Chords & Tabs

 

Lizzy Chords & Tabs

Ben Kweller Chords & Tabs

Version: 1 Type: Tab 0 ratings
1 star 2 stars 3 stars 4 stars 5 stars
comments

Lizzy Tab

		    	         Lizzy - Ben Kweller
    -------------------------------------------------------------------------------

      By: Shliii

    e|--------------------------------------------------------------------------|
    B|-------------3-----3---------------------5\1--5\1-------------------------|
    G|4p2-0-----------4--4--4---0--2--4-2-0h2--7\2--7\2---0--2------4p2-0-------|
    D|------0h2-------5-----5----------------------------------oh1--------0h2---|
    A|--------------------------------------------------------------------------|
    E|----------0-------------------------------------------------------------0-|

the timing on this may be off here. Listen to the song and adjust it as you feel 
needed.
[ Tab from: http://www.guitartabs.cc/tabs/b/ben_kweller/lizzy_tab.html ]
    e|----------------------0----------------------------------------------------|
    B|----------------------3----------------------------------------------------|
    G|----------------------2----------------------------------------------------|
    D|----------------------0----------------------------------------------------|
    A|---------------------------------------------------------------------------|
    E|---------------------------------------------------------------------------|
       sign me up a volunteer
unfortunately this is as far as i got. i have to figure out the rest, when i do ill 
update this.    

    e|------------------00-0-00-0-00-0-00-0-0------------------------------------|
    B|------------------33-3-33-3-33-3-33-3-3------------------------------------|
    G|------------------22-2-22-2-22-2-22-2-2------------------------------------|
    D|------------------00-0-00-0-00-0-00-0-0------------------------------------|
    A|---------------------------------------------------------------------------|
    E|---------------------------------------------------------------------------|

               the chords are played in this format. just quicker.

with this song you really need to be felxible. you cant play it to notes. it has a lot of 
emotion behind it and that should be obvious in your playing. it needs to flow like water,
then youve got it.
Comments