Ben Kweller - I Need You Back Chords & Tabs

 

I Need You Back Chords & Tabs

Ben Kweller Chords & Tabs

Version: 1 Type: Tab 0 ratings
1 star 2 stars 3 stars 4 stars 5 stars
comments

I Need You Back Tab

e|----------------------------|
B|----------------------------|
G|----1-h2------------3-1-----|
D|-----------3-0---------3-1--|   
A|----------------------------|
E|-1--------------------------|
[ Tab from: http://www.guitartabs.cc/tabs/b/ben_kweller/i_need_you_back_tab.html ]
e|----------------------------|
B|----------------------------|
G|----1-h2------------3-1-----|
D|-----------3-0---------3-1--|   
A|----------------------------|
E|-1--------------------------|
[ Tab from: http://www.guitartabs.cc/tabs/b/ben_kweller/i_need_you_back_tab.html ]
e|----------------------------|
B|----------------------------|
G|----1-h2------------3-1-----|
D|-----------3-0---------3-1--|   
A|----------------------------|
E|-1--------------------------|
[ Tab from: http://www.guitartabs.cc/tabs/b/ben_kweller/i_need_you_back_tab.html ]
e|----------------------------|
B|----------------------------|
G|----1-h2------------3-1-----|
D|-----------3-0---------3-1--|   
A|----------------------------|
E|-1--------------------------|
Comments