Ben Kweller - Believer Chords & Tabs

 

Believer Chords & Tabs

Ben Kweller Chords & Tabs

Version: 2 Type: Tab 0 ratings
1 star 2 stars 3 stars 4 stars 5 stars
comments

Believer Tab

   
-------------------------------------------------------------------------------
                        BELIEVER (intro) - Ben Kweller
-------------------------------------------------------------------------------
Tabbed by: R.C.
Email: smarterray at gmail dot com

Tuning: Standard

Tip: Barre your finger for the beginning and end to let the notes ring.

[ Tab from: http://www.guitartabs.cc/tabs/b/ben_kweller/believer_tab_ver_2.html ]
e|------------------------------------------------|
B|-4h5-4------------------------------------------|
G|----------4--------------4h6-4------------------|
D|-----------------------------------04---5\6-5\6-|
A|-4-----4-----4-----4----------------------------|
E|-------------------------4-----4---00---0---0---|

(cont.)

e|-----------------------------------------------|
B|-4h5-4-----------------------------------------|
G|----------4------------4h6---------------------|
D|----------------6------------------------------|
A|-4-----4-----4-----4---------------------------|
E|-----------------------4-----4-----4-----4-----|

Play twice!

| /  slide up
| \  slide down
| h  hammer-on
| p  pull-off
| ~  vibrato
| +  harmonic
| x  Mute note
===============================================================================
Comments