Ben Kweller - Ann Disaster Chords & Tabs

 

Ann Disaster Chords & Tabs

Ben Kweller Chords & Tabs

Version: 1 Type: Tab 0 ratings
1 star 2 stars 3 stars 4 stars 5 stars
comments

Ann Disaster Tab

                               *Ben Kweller*
                              *Ann  Disaster*
                                *On My Way*




Intro/Verse:
e|------------------|-----------------|
B|------------------|-----------------|
G|------------------|-----------------|
D|-5--------3-5-----|-3-3-3-3-3-3-3-3-|
A|-5--------3-5-----|-3-3-3-3-3-3-3-3-|
E|-3--------1-3-----|-1-1-1-1-1-1-1-1-|
   1 & 2 & 3 & 4 &    1 & 2 & 3 & 4 &

[ Tab from: http://www.guitartabs.cc/tabs/b/ben_kweller/ann_disaster_tab.html ]
Pre Chorus:
e|-----------------|-----------------|
B|-----------------|-----------------|
G|-3-3-3-3-3-3-3-3-|-5-5-5-5-5-5-5-5-|
D|-3-3-3-3-3-3-3-3-|-5-5-5-5-5-5-5-5-|
A|-1-1-1-1-1-1-1-1-|-3-3-3-3-3-3-3-3-|
E|-----------------|-----------------|
   1 & 2 & 3 & 4 &   1 & 2 & 3 & 4 &


Chorus:
e|------------------|------------------|
B|------------------|------------------|
G|------------------|------------------|
D|------------------|------------------|
A|---------1------1-|-3-5-3-5~~~~~~~~~~|
E|-1-3-1-3------3---|------------------|
   1 & 2 & 3 & 4 &    1 & 2 & 3 & 4 &


e|------------------|------------------|
B|------------------|------------------|
G|------------------|------------------|
D|------------------|---7---7----------|
A|---------1------1-|-3-5---5~~~~~~~~~~|
E|-1-3-1-3------3---|------------------|
   1 & 2 & 3 & 4 &    1 & 2 & 3 & 4 &
Comments