Ben Jelen - Christine Chords & Tabs

 

Christine Chords & Tabs

Ben Jelen Chords & Tabs

Version: 1 Type: Tab 0 ratings
1 star 2 stars 3 stars 4 stars 5 stars
comments

Christine Tab

"Christine" 
Ben Jelen
Tabbed by: Laura


Intro: 
                
|---------------------------------------------------|
|---------------------------------------------------|
|---------------------------------------------------|
|--11-11---9-9--7-7--9-9---11---11---9-9--7-7--9-9--|
|--11-11---9-9--7-7--9-9---11---11---9-9--7-7--9-9--|
|--9--9----7-7--5-5--7-7---9----9----7-7--5-5--7-7--|


Verse:

|--------------------------------------------------------------|
|--------------------------------------------------------------|
|--------------------------------------------------------------|
|--11-11--9-9--7-7--9-9--11-11--9-9--7-7---11-11--9-9--7-7-7-7-|
|--11-11--9-9--7-7--9-9--11-11--9-9--7-7---11-11--9-9--7-7-7-7-|
|--9--9---7-7--5-5--7-7--9--9---7-7--5-5---9--9---7-7--5-5-5-5-|

|-----------------------|
|-----------------------|
|-----------------------|
|--11-11--9-9--7-7-7-7--|
|--11-11--9-9--7-7-7-7--|
|--9--9---7-7--5-5-5-5--|


Pre-Chorus:

|------------|      |------------|
|------------|      |------------|
|-------6-6--|      |------------|
|--6-6--6-4--|      |--7-7--9-9--|
|--6-6--4-4--|      |--7-7--9-9--|
|--4-4-------|(x3)  |--5-5--7-7--|


Chorus:

|----------------------------------------|
|----------------------------------------|
|--9-9-----------------------------------|
|--9-9--9-9--7-7-7-7--11-11--9-9--7-7----|
|--7-7--9-9--7-7-7-7--11-11--9-9--7-7----|
|-------7-7--5-5-5-5--9--9---7-7--5-5----|

|----------------------------------------|
|----------------------------------------|
|--9-9-----------------------------------|
|--9-9--9-9--7-7-7-7--11-11--9-9--7-7----|
|--7-7--9-9--7-7-7-7--11-11--9-9--7-7----|
|-------7-7--5-5-5-5--9--9---7-7--5-5----|





Main Riff (x2): 

|-------------------------|
|-------------------------|
|-------------------------|
|--11-11---9-9--7-7--9-9--|
|--11-11---9-9--7-7--9-9--|
|--9--9----7-7--5-5--7-7--|



Verse:

|--------------------------------------------------------------|
|--------------------------------------------------------------|
|--------------------------------------------------------------|
|--11-11--9-9--7-7--9-9--11-11--9-9--7-7---11-11--9-9--7-7-7-7-|
|--11-11--9-9--7-7--9-9--11-11--9-9--7-7---11-11--9-9--7-7-7-7-|
|--9--9---7-7--5-5--7-7--9--9---7-7--5-5---9--9---7-7--5-5-5-5-|
[ Tab from: http://www.guitartabs.cc/tabs/b/ben_jelen/christine_tab.html ]
|-----------------------|
|-----------------------|
|-----------------------|
|--11--11--9-9--7-7-7-7-|
|--11--11--9-9--7-7-7-7-|
|--9---9---7-7--5-5-5-5-|


Pre-Chorus:

|------------|      |------------|
|------------|      |------------|
|-------6-6--|      |------------|
|--6-6--6-4--|      |--7-7--9-9--|
|--6-6--4-4--|      |--7-7--9-9--|
|--4-4-------|(x3)  |--5-5--7-7--|


Chorus:

|----------------------------------------|
|----------------------------------------|
|--9-9-----------------------------------|
|--9-9--9-9--7-7-7-7--11-11--9-9--7-7----|
|--7-7--9-9--7-7-7-7--11-11--9-9--7-7----|
|-------7-7--5-5-5-5--9--9---7-7--5-5----|

|------------------------------------------------|
|------------------------------------------------|
|--9-9-------------------------------------------|
|--9-9--9-9--7-7-7-7--11-11--9-9--7-7--11--9--7--|
|--7-7--9-9--7-7-7-7--11-11--9-9--7-7--11--7--7--|
|-------7-7--5-5-5-5--9--9---7-7--5-5--9---7--5--|








Bridge:

|--------------------------------------------------------------|
|--------------------------------------------------------------|
|------------6-6---------------------------6-6-----------------|
|--7-7--6-6--6-6--6-6--7-7--6-6--7-7--6-6--6-6--6-6--7-7--6-6--|
|--7-7--6-6--4-4--6-6--7-7--6-6--7-7--6-6--4-4--6-6--7-7--6-6--|
|--5-5--4-4-------4-4--5-5--4-4--5-5--4-4-------4-4--5-5--4-4--|



|------------|
|------------|
|-------6-6--|
|--6-6--6-6--|
|--4-4--4-4--|
|--4-4-------|


Chorus:

|----------------------------------------|
|----------------------------------------|
|--9-9-----------------------------------|
|--9-9--9-9--7-7-7-7--11-11--9-9--7-7----|
|--7-7--9-9--7-7-7-7--11-11--9-9--7-7----|
|-------7-7--5-5-5-5--9--9---7-7--5-5----|

|------------------------------------------|
|------------------------------------------|
|--9-9-------------------------------------|
|--9-9--9-9--7-7-7-7--11-11--9-9--7-7-7-7--|
|--7-7--9-9--7-7-7-7--11-11--9-9--7-7-7-7--|
|-------7-7--5-5-5-5--9--9---7-7--5-5-5-5--|


|------------------|
|------------------|
|------------------|
|-11-11--9-9--7-7--|
|-11-11--9-9--7-5--|
|-9--9---7-7--5-5--|


Outro:

|---------------------|
|---------------------|
|---------------------|
|--7-7--6-6--7-7-7-7--|
|--7-7--6-6--7-7-7-7--|
|--5-5--4-4--5-5-5-5--| (x3)

|------------|
|------------|
|------------|
|--7-7--6-6--|
|--7-7--6-6--|
|--5-5--4-4--|


|-------------|
|-------------|
|-------------|
|--9-9-9--11--|
|--9-9-9--11--|
|--7-7-7--9---|
Comments