Ben Harper - Woman In You Chords & Tabs

 

Woman In You Chords & Tabs

Ben Harper Chords & Tabs

Version: 2 Type: Tab 0 ratings
1 star 2 stars 3 stars 4 stars 5 stars
comments

Woman In You Tab

   
Song: The Woman In You
Artist: Ben Harper
Album: Burn to Shine
Tabbed by: Alan, bosstoner737@hotmail.com

The main riff is like this

E|-----2------------------------------------|
B|-----3-2-2--2-2h3p2-----7------------10-8-|
G|-----4-2-2--2------2----7----7-7h9p7------|
D|-----4-2-2--2-----------7-7h9-------9-----|
A|-2-2-2---------------5/7------------------|
E|------------------------------------------|

[ Tab from: http://www.guitartabs.cc/tabs/b/ben_harper/woman_in_you_tab_ver_2.html ]
The Chords played during the chorus are

   B  A  G  A
E|-2--0--3--0-|
B|-3--2--3--2-|
G|-4--2--0--2-|
D|-4--2--0--2-|
A|-2--0--2--0-|
E|-------3----|


This part is after the second chorus with dist.

E|-------------------|
B|-------------------|
G|-------------------|
D|-2-2---5-5---5---7-|
A|-2-2---5-5---5---7-|
E|-0-0-0-3-3-0-3-0-5-|

Email me at bosstoner737@hotmail.com with any questions or comments
Comments