Ben Harper - Walk Away Chords & Tabs

 

Walk Away Chords & Tabs

Ben Harper Chords & Tabs

Version: 4 Type: Tab 0 ratings
1 star 2 stars 3 stars 4 stars 5 stars
comments

Walk Away Tab

|------3---3--|------3---3--|------3---3--|------3---3--|
|------3---3--|------3---3--|------3---3--|------3---3--|
|------0---0--|------0---0--|------0---0--|------0---0--|
|-------------|-------------|-------------|-------------|
|-------------|-------------|-------------|-------------|
|-3-3---------|-2-2---------|-0-0---------|--0^2-2------|
[ Tab from: http://www.guitartabs.cc/tabs/b/ben_harper/walk_away_tab_ver_4.html ]
Chorus
|------3---3--|------3---3--|------3---3--|------3---3--|
|------3---3--|------3---3--|------3---3--|------3---3--|
|------0---0--|------0---0--|------0---0--|------0---0--|
|-------------|-------------|-------------|-------------|
|-3-3---------|-2-2---------|-0-0---------|--0^2--------|
|-------------|-------------|-------------|-------------|

Bridge
|-------------|-------------|-------------|--------------|
|--------1-0--|---------0-3-|---------3-3-|---------3-3--|
|--------2-0--|---------0-0-|---------0-2-|---------2-0--|
|-------------|-------------|-------------|--------------|
|--0--0-------|-------------|-------------|--------------|
|-------------|--0--0-------|--3--3-------|--2--2--------|
Comments