Ben Harper - Walk Away Chords & Tabs

 

Walk Away Chords & Tabs

Ben Harper Chords & Tabs

Version: 2 Type: Tab 0 ratings
1 star 2 stars 3 stars 4 stars 5 stars
comments

Walk Away Tab

Ben Harper, Walk Away.
Tabbed by Ethan Harting, dmb_n_u2@hotmail.com.
  
This is my first tab so if it sucks, sorry.

>From Welcome to the Cruel World CD.

Here we go.

Here is the verse.

e------------------------------------------------
b---------3-3---------3-3---------3-3-------3-3--
g---------0-0---------0-0---------0-0-------0-0--
d------------------------------------------------ 
a------------------------------------------------
e---3--3--------2--2--------0--0-------0h2-------
[ Tab from: http://www.guitartabs.cc/tabs/b/ben_harper/walk_away_tab_ver_2.html ]
Repeat that through verses

Chorus

e------------------------------------------------
b---------3-3--------3-3--------3-3-------3-3----
g---------0-0--------0-0--------0-0-------0-0----
d------------------------------------------------
a---3--3-------2--2-------0--0-------0h2---------
e------------------------------------------------

Repeat through chorus.

That's it.

There is a little adlib by Ben in this song but if you listen to the CD it is really easy to figure out.

 
:: Ultimate Guitar Archive :: 
http://www.ultimate-guitar.com 

Comments