Ben Harper - The Woman In You Chords & Tabs

 

The Woman In You Chords & Tabs

Ben Harper Chords & Tabs

Version: 3 Type: Tab 0 ratings
1 star 2 stars 3 stars 4 stars 5 stars
comments

The Woman In You Tab

chilipepper465@hotmail.com - any comments/corrections appreciated :D

> hammer on
< pull off
[ Tab from: http://www.guitartabs.cc/tabs/b/ben_harper/the_woman_in_you_tab_ver_3.html ]
----------------------------------------------------------------------|
----------------3----------2>3------2>3<2-----------------------------|
--------------2------------2--------2-------2-------------------------|
------------4-----------2---------------------------------------------|
-----2---------------0----------------------------5---5>7-------------|
------------------------------------------------------------0---------|


------------------------------------------------------------|
-------------7-------7-----------------10<8-----------------|
-----7-------7-------7>9<7-----------7----------------------|
-----7>9--------9------------9-----9------------------------|
------------------------------------------------------------|
------------------------------------------------------------|
Comments