Ben Harper - The Woman In You Chords & Tabs

 

The Woman In You Chords & Tabs

Ben Harper Chords & Tabs

Version: 2 Type: Tab 0 ratings
1 star 2 stars 3 stars 4 stars 5 stars
comments

The Woman In You Tab

   
THE WOMAN IN YOU
BY BEN HARPER
----------------

Tabbed by AAuuddee@aol.com


NOTE:
There can be some variations sometimes so you have to listen
to the song carefully...but this tab is all right...except
that I don't have the beginning of the song so I started from
the verse, I don't know what's before...sorry!!


VERSE:

  Bm        A               Em
--------------------------------------------------------5--3--
----------3---2--2--2h3p2------------0--3p0--3s5--3--0--3-----
----------4---2--2--------2--------2--------------------------
----------4---2--2----------0h2--2----------------------------
--0h2--2----0---------------0h2--2----------------------------
--------------------------------------------------------------
[ Tab from: http://www.guitartabs.cc/tabs/b/ben_harper/the_woman_in_you_tab_ver_2.html ]
  Bm        A               Em
--------------------------------------------------------3--3--
----------3---2--2--2h3p2------------0--3p0--3s5--3--0--3-----
----------4---2--2--------2--------2--------------------------
----------4---2--2----------0h2--2----------------------------
--0h2--2----0---------------0h2--2----------------------------
--------------------------------------------------------------
repeat


CHORUS:

  Bm  E   G   A
--2---0---3---0--
--3---0---0---2--
--4---1---0---2-- repeat
--4---2---0---2--
--2---2---2---0--
------0---3------


VERSE


CHORUS


BRIDGE: distortion

  E   G   A
--0---3---0--
--0---0---2--
--1---0---2-- repeat
--2---0---2--
--2---2---0--
--0---3------


VERSE: same as the other verses but there is piano at the
beginning and at the end.


CHORUS


BRIDGE
ENJOY!!!
Comments