Ben Harper - The Woman In You Chords & Tabs

 

The Woman In You Chords & Tabs

Ben Harper Chords & Tabs

Version: 1 Type: Tab 0 ratings
1 star 2 stars 3 stars 4 stars 5 stars
comments

The Woman In You Tab

   
Person: Jennifer Wong

song: The Woman in You

artist: Ben Harper

tab: Ben Harper

Song Title: The Woman in You
From Album: Burn to Shine

Transcribed By: Jennifer Wong
Contact Email: maple@direct.ca

Tuning: Regular 
Notes on how to play it: A fantabulous Ben Harper Acoustic-ish song! 

TAB:

Part I

    Bm                  A
E |---(1)--------|--0---0---0---0---0-------------------------------|
B |----3---------|--2---3---2---3---2-H3-P2-------------------------|
G |----4---------|--2---2---2---2---2-------0-----------------------|
D |----4---------|--2---2---2---2---2-------------------------------|
A |--2-----------|--0---0---0---0---0-------------------------------|
E |--------------|--------------------------------------------------|


 E |----------------------------------------------------------------|
 B |----------------------------------10p8--------------------------| 
 G |---------7---7---7---7---s9p7------(9)--------------------------|
 D |---------7---9---7---9---------9--------------------------------|
 A |---5s7---7---7---7---7------------------------------------------|
 E |----------------------------------------------------------------|


Part II

A)

        Bm                      E                       G                       A
t |-------(1)-(1)--|--------0---0--|--------3---3--|----------0--1--| 
u |--------3---3---|--------0---0--|--------3---3--|----------3--3--|  
n |--------4---4---|--------1---1--|--------0---0--|----------3--4--|
i |--------4---4---|--------2---2--|--------0---0--|----------3--4--|
n |--2---2-----2---|--------2---2--|--------2---2--|--0---0---0--2--|
g |----------------|--0---0--------|--3---3-----3--|----------------|

B)
[ Tab from: http://www.guitartabs.cc/tabs/b/ben_harper/the_woman_in_you_tab.html ]
        Bm                      E                       G               A        | Bm   
T |-(1)---(1)-----|--------0---0--|--------3---3--|----------0--2--|
u |--3-----3---3--|--------0---0--|--------3---3--|----------3--3--|
n |--4-----4---4--|--------1---1--|--------0---0--|----------3--4--|
i |--4-----4---4--|--------2---2--|--------0---0--|----------3--4--|
n |--2---2-----2--|--------2---2--|--------2---2--|--0---0---0--2--|
g |---------------|--0---0--------|--3---3-----3--|----------------|


Play "A" once then loop "B"
From "B" you either go to part I, or to part III which looks like this:

Part III

        E shape
T |--0---0---0----0----0----0--------|
u |--0---0---0----0----0----0--------|
n |--1---1---1---s4---s6---s4--------|
i |--2---2---2---s5---s7---s5--------|
n |--2---2---2---s5---s7---s5--------|
g |--0---0---0----0----0----0--------|

repeat a few times

        E shape
T |--0---0---0----0---0---0---0---0---0----0--|
u |--0---0---0----0---0---0---0---0---0----0--|
n |--1---1---1---s6---6---6---6---6---6---s4--|
i |--2---2---2---s7---7---7---7---7---7---s5--|
n |--2---2---2---s7---7---7---7---7---7---s5--|
g |--0---0---0----0---0---0---0---0---0----0--|

then do this a few times…

listen to the record to get the rhythm and the order of stuff and
enjoy!










The Woman in You
 Could this word I heard you said me this morning
 Showing some kind of sign of your believe
 Did it fall from your tongue without warning
 Or just another trick to fall from your sleeve
 Did I hear you say that you believe in angels
 I guess I bring the devil out in you
 But we can both remove our halos
 'Cos even an angel needs love too
 Even angels need love too

 The woman in you is the worry, the worry in me
 The woman in you is the worry, the worry in me

 Some things never change
 Some things never stay the same
 But you are so innocent
 I'll take all the blame
 How I hate to remember
 For that means the day is past
 Sometimes I wonder if I know her
 Or if I really need to ask
 Or if I really need to ask

 The woman in you is the worry, the worry in me
 The woman in you is the worry, the worry in me
 The woman in you is the worry, the worry in me
 Woman, woman, woman, woman, woman, woman, woman

 Half of men walks with no shadow
 Of life your other is distaste
 No apology is expected
 Love comes sorry in is his face
 Love comes sorry in is his face

 The woman in you is the worry, the worry in me
 The woman in you is the worry, the worry in me
 The woman in you, in you, is the worry in me
 Woman, woman, (adlib)

Comments