Ben Harper - The Drugs Dont Work Chords & Tabs

 

The Drugs Dont Work Chords & Tabs

Ben Harper Chords & Tabs

Version: 1 Type: Tab 0 ratings
1 star 2 stars 3 stars 4 stars 5 stars
comments

The Drugs Dont Work Tab

   
Artist: Ben Harper  
Song: The Drugs Don't Work  
Album: Live From Mars  
Song   
tabbed by Sonny Wiscount  
email: wishu_werehere@hotmail.com  
 
Verse 1/ play as   
intro first then do as verse  
 
all this talk   
of.......  
E|--3---3---3-3-3---3-3-3-3--3--3-3---3-3-3-----------|  
B|--1---1---1-1-1---1-1-1-1--1--1-1---1-1-1--1-1-1----|  
G|--0---0---0-0-0---0-0-0-0--0--0-0---0-0-0--0-0-0----|  
D|--2---2---2-2-2---2-0-0/2--2--2-2---2-2-2--0-0-0----|  
A|--3---3---3-3-3---3-3-3-3--3--3-3---3-3-3--2-2-2----|  
E|----------------------------------------------------|  
 
it's   
getting me down......                     
 
E|--------------------------------------------------|  
B|--1---1---1-1-1---1-1-1-1--1--1-1-1-1---1--x-0----|  
G|--2---2---2-2-2---2-0-0/2--2--2-2-2-2---2--x-0----|  
D|--2---2---2-2-2---2-0-0/2--2--2-2-2-2---2--x-0----|  
A|--0---0---0-0-0---0-0-0-0--0--0-0-0-0---0--x-0----|  
E|--------------------------------------------------|  
 
like   
a cat in a   
bag......  
E|-----------------------------1--1--1--1-1--3-3--3--3----|  
B|------------------------x-x--1--1--1--1-1--3-3--3--3----|  
G|--1--1--1--1-1-1-1-1--1-x-x--2--2--2--2-2--0-0--0--0----|  
D|--2--2--2--2-2-2-2-2--2-x-x--3--3--3--3-3--0-0--0--0----|  
A|--2--2--2--2-2-2-2-2--2-x-x--3--3--3--3-3--2-2--2--2----|  
E|--0--0--0--0-0-0-0-0--0-x-x--1--1--1--1-1--3-3--3--3----|  
 
 
E|--3---3---3-3-3-3-3-3-3-3--3--3----3---3---3-3-3---3----|  
B|--1---1---1-1\0-0-0-0-0/1--1--1----1---1---1-1-1---1----|  
G|--0---0---0-0-0-0-0-0-0-0--0--0----0---0---0-0-0---0----|  
D|--2---2---2-2-2-2-2-2-2-2--2--2----2---2---2-2-2---2----|  
A|--3---3---3-3-3-3-3-3-3-3--3--3----3---3---3-3-3---3----|  
E|--------------------------------------------------------|  
 
 
Verse   
2  
 
and i know your   
thinking........  
E|--3---3---3-3-3---3-3-3-3--3--3-3---3-3-3-----------|  
B|--1---1---1-1-1---1-1-1-1--1--1-1---1-1-1--1-1-1----|  
G|--0---0---0-0-0---0-0-0-0--0--0-0---0-0-0--0-0-0----|  
D|--2---2---2-2-2---2-0-0/2--2--2-2---2-2-2--0-0-0----|  
A|--3---3---3-3-3---3-3-3-3--3--3-3---3-3-3--2-2-2----|  
E|----------------------------------------------------|  
 
as   
you lay down on ............                     
 
E|--------------------------------------------------|  
B|--1---1---1-1-1---1-1-1-1--1--1-1-1-1---1--x-0----|  
G|--2---2---2-2-2---2-0-0/2--2--2-2-2-2---2--x-0----|  
D|--2---2---2-2-2---2-0-0/2--2--2-2-2-2---2--x-0----|  
A|--0---0---0-0-0---0-0-0-0--0--0-0-0-0---0--x-0----|  
E|--------------------------------------------------|  
 
now   
the drugs dont   
work......  
E|-----------------------------1--1--1--1-1--3-3--3--3----|  
B|------------------------x-x--1--1--1--1-1--3-3--3--3----|  
G|--1--1--1--1-1-1-1-1--1-x-x--2--2--2--2-2--0-0--0--0----|  
D|--2--2--2--2-2-2-2-2--2-x-x--3--3--3--3-3--0-0--0--0----|  
A|--2--2--2--2-2-2-2-2--2-x-x--3--3--3--3-3--2-2--2--2----|  
E|--0--0--0--0-0-0-0-0--0-x-x--1--1--1--1-1--3-3--3--3----|  
 
 
E|--3---3---3-3-3-3-3-3-3-3--3--3----|  
B|--1---1---1-1\0-0-0-0-0/1--1--1----|  
G|--0---0---0-0-0-0-0-0-0-0--0--0----|  
D|--2---2---2-2-2-2-2-2-2-2--2--2----|  
A|--3---3---3-3-3-3-3-3-3-3--3--3----|  
E|-----------------------------------|  
 
now   
the drugs dont   
work.......  
E|-----------------------------1--1--1--1-1--3-3--3--3----|  
B|------------------------x-x--1--1--1--1-1--3-3--3--3----|  
G|--1--1--1--1-1-1-1-1--1-x-x--2--2--2--2-2--0-0--0--0----|  
D|--2--2--2--2-2-2-2-2--2-x-x--3--3--3--3-3--0-0--0--0----|  
A|--2--2--2--2-2-2-2-2--2-x-x--3--3--3--3-3--2-2--2--2----|  
E|--0--0--0--0-0-0-0-0--0-x-x--1--1--1--1-1--3-3--3--3----|  
 
 
E|--3---3---3-3-3-3-3-3-3-3--3--3----3---3---3-3-3---3----|  
B|--1---1---1-1\0-0-0-0-0/1--1--1----1---1---1-1-1---1----|  
G|--0---0---0-0-0-0-0-0-0-0--0--0----0---0---0-0-0---0----|  
D|--2---2---2-2-2-2-2-2-2-2--2--2----2---2---2-2-2---2----|  
A|--3---3---3-3-3-3-3-3-3-3--3--3----3---3---3-3-3---3----|  
E|--------------------------------------------------------|  
 
 
Verse   
3  
 
but i know im on a   
losing.................  
E|--3---3---3-3-3---3-3-3-3--3--3-3---3-3-3-----------|  
B|--1---1---1-1-1---1-1-1-1--1--1-1---1-1-1--1-1-1----|  
G|--0---0---0-0-0---0-0-0-0--0--0-0---0-0-0--0-0-0----|  
D|--2---2---2-2-2---2-0-0/2--2--2-2---2-2-2--0-0-0----|  
A|--3---3---3-3-3---3-3-3-3--3--3-3---3-3-3--2-2-2----|  
E|----------------------------------------------------|  
 
cause   
i passed down.............                     
 
E|--------------------------------------------------|  
B|--1---1---1-1-1---1-1-1-1--1--1-1-1-1---1--x-0----|  
G|--2---2---2-2-2---2-0-0/2--2--2-2-2-2---2--x-0----|  
D|--2---2---2-2-2---2-0-0/2--2--2-2-2-2---2--x-0----|  
A|--0---0---0-0-0---0-0-0-0--0--0-0-0-0---0--x-0----|  
E|--------------------------------------------------|  
 
and   
if you wanna   
show.............  
E|-----------------------------1--1--1--1-1--3-3--3--3----|  
B|------------------------x-x--1--1--1--1-1--3-3--3--3----|  
G|--1--1--1--1-1-1-1-1--1-x-x--2--2--2--2-2--0-0--0--0----|  
D|--2--2--2--2-2-2-2-2--2-x-x--3--3--3--3-3--0-0--0--0----|  
A|--2--2--2--2-2-2-2-2--2-x-x--3--3--3--3-3--2-2--2--2----|  
E|--0--0--0--0-0-0-0-0--0-x-x--1--1--1--1-1--3-3--3--3----|  
 
 
E|--3---3---3-3-3-3-3-3-3-3--3--3----|  
B|--1---1---1-1\0-0-0-0-0/1--1--1----|  
G|--0---0---0-0-0-0-0-0-0-0--0--0----|  
D|--2---2---2-2-2-2-2-2-2-2--2--2----|  
A|--3---3---3-3-3-3-3-3-3-3--3--3----|  
E|-----------------------------------|  
 
now   
the drugs dont   
work...........  
E|-----------------------------1--1--1--1-1--3-3--3--3----|  
B|------------------------x-x--1--1--1--1-1--3-3--3--3----|  
G|--1--1--1--1-1-1-1-1--1-x-x--2--2--2--2-2--0-0--0--0----|  
D|--2--2--2--2-2-2-2-2--2-x-x--3--3--3--3-3--0-0--0--0----|  
A|--2--2--2--2-2-2-2-2--2-x-x--3--3--3--3-3--2-2--2--2----|  
E|--0--0--0--0-0-0-0-0--0-x-x--1--1--1--1-1--3-3--3--3----|  
 
 
E|--3---3---3-3-3-3-3-3-3-3--3--3----3---3---3-3-3---3----|  
B|--1---1---1-1\0-0-0-0-0/1--1--1----1---1---1-1-1---1----|  
G|--0---0---0-0-0-0-0-0-0-0--0--0----0---0---0-0-0---0----|  
D|--2---2---2-2-2-2-2-2-2-2--2--2----2---2---2-2-2---2----|  
A|--3---3---3-3-3-3-3-3-3-3--3--3----3---3---3-3-3---3----|  
E|--------------------------------------------------------|  
 
 
Chorus  
 
So   
  baby     
oooooohhhhh........  
E|--1---1---1-1-1-1---1------0---0---0-0-0-0---0--x----|  
B|--1---1---1-1-1-1---1--x---0---0---0-0-0-0---0--x----|  
G|--2---2---2-2-2-2---2--x---1---1---1-1-1-1---1--x----|  
D|--3---3---3-3-3-3---3--x---2---2---2-2-2-2---2--x----|  
A|--3---3---3-3-3-3---3--x---2---2---2-2-2-2---2--x----|  
E|--1---1---1-1-1-1---1--x---0---0---0-0-0-0---0-------|  
 
if   
heaven   
calls..........  
E|--0---0---0-0-0-0---0------3---3---3-3-3-3---3--x----|  
B|--1---1---1-1-1-1---1--x---3---3---3-3-3-3---3--x----|  
G|--2---2---2-2-2-2---2--x---0---0---0-0-0-0---0--x----|  
D|--2---2---2-2-2-2---2--x---0---0---0-0-0-0---0--x----|  
A|--0---0---0-0-0-0---0--x---2---2---2-2-2-2---2--x----|  
E|-----------------------x-----------------------------|  
 
just   
like you   
said.............  
E|--1---1---1-1-1-1---1------0---0---0-0-0-0---0--x----|  
B|--1---1---1-1-1-1---1--x---0---0---0-0-0-0---0--x----|  
G|--2---2---2-2-2-2---2--x---1---1---1-1-1-1---1--x----|  
D|--3---3---3-3-3-3---3--x---2---2---2-2-2-2---2--x----|  
A|--3---3---3-3-3-3---3--x---2---2---2-2-2-2---2--x----|  
E|--1---1---1-1-1-1---1--x---0---0---0-0-0-0---0-------|  
 
if   
you leave my   
life...............  
E|--0---0---0-0-0-0---0------3---3---3-3-3-3---3--x----|  
B|--1---1---1-1-1-1---1--x---3---3---3-3-3-3---3--x----|  
G|--2---2---2-2-2-2---2--x---0---0---0-0-0-0---0--x----|  
D|--2---2---2-2-2-2---2--x---0---0---0-0-0-0---0--x----|  
A|--0---0---0-0-0-0---0--x---2---2---2-2-2-2---2--x----|  
E|-----------------------x-----------------------------|  
 
 
Verse   
4  
 
all this talk of   
getting...........  
E|--3---3---3-3-3---3-3-3-3--3--3-3---3-3-3-----------|  
B|--1---1---1-1-1---1-1-1-1--1--1-1---1-1-1--1-1-1----|  
G|--0---0---0-0-0---0-0-0-0--0--0-0---0-0-0--0-0-0----|  
D|--2---2---2-2-2---2-0-0/2--2--2-2---2-2-2--0-0-0----|  
A|--3---3---3-3-3---3-3-3-3--3--3-3---3-3-3--2-2-2----|  
E|----------------------------------------------------|  
 
its   
getting me down............                     
 
E|--------------------------------------------------|  
B|--1---1---1-1-1---1-1-1-1--1--1-1-1-1---1--x-0----|  
G|--2---2---2-2-2---2-0-0/2--2--2-2-2-2---2--x-0----|  
D|--2---2---2-2-2---2-0-0/2--2--2-2-2-2---2--x-0----|  
A|--0---0---0-0-0---0-0-0-0--0--0-0-0-0---0--x-0----|  
E|--------------------------------------------------|  
 
like   
a cat in a   
bag..........  
E|-----------------------------1--1--1--1-1--3-3--3--3----|  
B|------------------------x-x--1--1--1--1-1--3-3--3--3----|  
G|--1--1--1--1-1-1-1-1--1-x-x--2--2--2--2-2--0-0--0--0----|  
D|--2--2--2--2-2-2-2-2--2-x-x--3--3--3--3-3--0-0--0--0----|  
A|--2--2--2--2-2-2-2-2--2-x-x--3--3--3--3-3--2-2--2--2----|  
E|--0--0--0--0-0-0-0-0--0-x-x--1--1--1--1-1--3-3--3--3----|  
 
 
E|--3---3---3-3-3-3-3-3-3-3--3--3----|  
B|--1---1---1-1\0-0-0-0-0/1--1--1----|  
G|--0---0---0-0-0-0-0-0-0-0--0--0----|  
D|--2---2---2-2-2-2-2-2-2-2--2--2----|  
A|--3---3---3-3-3-3-3-3-3-3--3--3----|  
E|-----------------------------------|  
 
now   
the drugs dont   
work............  
E|-----------------------------1--1--1--1-1--3-3--3--3----|  
B|------------------------x-x--1--1--1--1-1--3-3--3--3----|  
G|--1--1--1--1-1-1-1-1--1-x-x--2--2--2--2-2--0-0--0--0----|  
D|--2--2--2--2-2-2-2-2--2-x-x--3--3--3--3-3--0-0--0--0----|  
A|--2--2--2--2-2-2-2-2--2-x-x--3--3--3--3-3--2-2--2--2----|  
E|--0--0--0--0-0-0-0-0--0-x-x--1--1--1--1-1--3-3--3--3----|  
 
 
E|--3---3---3-3-3-3-3-3-3-3--3--3----3---3---3-3-3---3----|  
B|--1---1---1-1\0-0-0-0-0/1--1--1----1---1---1-1-1---1----|  
G|--0---0---0-0-0-0-0-0-0-0--0--0----0---0---0-0-0---0----|  
D|--2---2---2-2-2-2-2-2-2-2--2--2----2---2---2-2-2---2----|  
A|--3---3---3-3-3-3-3-3-3-3--3--3----3---3---3-3-3---3----|  
E|--------------------------------------------------------|  
 
 
Chorus  
 
So   
  baby     
oooooohhhhh........  
E|--1---1---1-1-1-1---1------0---0---0-0-0-0---0--x----|  
B|--1---1---1-1-1-1---1--x---0---0---0-0-0-0---0--x----|  
G|--2---2---2-2-2-2---2--x---1---1---1-1-1-1---1--x----|  
D|--3---3---3-3-3-3---3--x---2---2---2-2-2-2---2--x----|  
A|--3---3---3-3-3-3---3--x---2---2---2-2-2-2---2--x----|  
E|--1---1---1-1-1-1---1--x---0---0---0-0-0-0---0-------|  
 
if   
heaven   
calls..........  
E|--0---0---0-0-0-0---0------3---3---3-3-3-3---3--x----|  
B|--1---1---1-1-1-1---1--x---3---3---3-3-3-3---3--x----|  
G|--2---2---2-2-2-2---2--x---0---0---0-0-0-0---0--x----|  
D|--2---2---2-2-2-2---2--x---0---0---0-0-0-0---0--x----|  
A|--0---0---0-0-0-0---0--x---2---2---2-2-2-2---2--x----|  
E|-----------------------x-----------------------------|  
 
just   
like you   
said.............  
E|--1---1---1-1-1-1---1------0---0---0-0-0-0---0--x----|  
B|--1---1---1-1-1-1---1--x---0---0---0-0-0-0---0--x----|  
G|--2---2---2-2-2-2---2--x---1---1---1-1-1-1---1--x----|  
D|--3---3---3-3-3-3---3--x---2---2---2-2-2-2---2--x----|  
A|--3---3---3-3-3-3---3--x---2---2---2-2-2-2---2--x----|  
E|--1---1---1-1-1-1---1--x---0---0---0-0-0-0---0-------|  
 
if   
you leave my   
life...............  
E|--0---0---0-0-0-0---0------3---3---3-3-3-3---3--x----|  
B|--1---1---1-1-1-1---1--x---3---3---3-3-3-3---3--x----|  
G|--2---2---2-2-2-2---2--x---0---0---0-0-0-0---0--x----|  
D|--2---2---2-2-2-2---2--x---0---0---0-0-0-0---0--x----|  
A|--0---0---0-0-0-0---0--x---2---2---2-2-2-2---2--x----|  
E|-----------------------x-----------------------------|  
 
 
Verse   
5  
 
but if you wanna   
show..........  
E|-----------------------------1--1--1--1-1--3-3--3--3----|  
B|------------------------x-x--1--1--1--1-1--3-3--3--3----|  
G|--1--1--1--1-1-1-1-1--1-x-x--2--2--2--2-2--0-0--0--0----|  
D|--2--2--2--2-2-2-2-2--2-x-x--3--3--3--3-3--0-0--0--0----|  
A|--2--2--2--2-2-2-2-2--2-x-x--3--3--3--3-3--2-2--2--2----|  
E|--0--0--0--0-0-0-0-0--0-x-x--1--1--1--1-1--3-3--3--3----|  
 
 
E|--3---3---3-3-3-3-3-3-3-3--3--3----|  
B|--1---1---1-1\0-0-0-0-0/1--1--1----|  
G|--0---0---0-0-0-0-0-0-0-0--0--0----|  
D|--2---2---2-2-2-2-2-2-2-2--2--2----|  
A|--3---3---3-3-3-3-3-3-3-3--3--3----|  
E|-----------------------------------|  
 
now   
the drugs   
dont............  
E|-----------------------------1--1--1--1-1--3-3--3--3----|  
B|------------------------x-x--1--1--1--1-1--3-3--3--3----|  
G|--1--1--1--1-1-1-1-1--1-x-x--2--2--2--2-2--0-0--0--0----|  
D|--2--2--2--2-2-2-2-2--2-x-x--3--3--3--3-3--0-0--0--0----|  
A|--2--2--2--2-2-2-2-2--2-x-x--3--3--3--3-3--2-2--2--2----|  
E|--0--0--0--0-0-0-0-0--0-x-x--1--1--1--1-1--3-3--3--3----|  
 
 
E|--3---3---3-3-3-3-3-3-3-3--3--3----3---3---3-3-3---3----|  
B|--1---1---1-1\0-0-0-0-0/1--1--1----1---1---1-1-1---1----|  
G|--0---0---0-0-0-0-0-0-0-0--0--0----0---0---0-0-0---0----|  
D|--2---2---2-2-2-2-2-2-2-2--2--2----2---2---2-2-2---2----|  
A|--3---3---3-3-3-3-3-3-3-3--3--3----3---3---3-3-3---3----|  
E|--------------------------------------------------------|  
 
 
Outro  
 
yeah   
i know ill see your face   
again.............  
E|--3---3---3-3-3-3-3-3-3-3--3--3----3---3---3-3-3---3----|  
B|--1---1---1-1\0-0-0-0-0/1--1--1----1---1---1-1-1---1----|  
G|--0---0---0-0-0-0-0-0-0-0--0--0----0---0---0-0-0---0----|  
D|--2---2---2-2-2-2-2-2-2-2--2--2----2---2---2-2-2---2----|  
A|--3---3---3-3-3-3-3-3-3-3--3--3----3---3---3-3-3---3----|  
E|--------------------------------------------------------|  
 
reapeat   
that a few times  
 
then   
 
I'm never coming   
down..........  
E|--3---3---3-3-3-3-3-3-3-3--3--3----3---3---3-3-3---3----|  
B|--1---1---1-1\0-0-0-0-0/1--1--1----1---1---1-1-1---1----|  
G|--0---0---0-0-0-0-0-0-0-0--0--0----0---0---0-0-0---0----|  
D|--2---2---2-2-2-2-2-2-2-2--2--2----2---2---2-2-2---2----|  
A|--3---3---3-3-3-3-3-3-3-3--3--3----3---3---3-3-3---3----|  
E|--------------------------------------------------------|  
 
and   
do that a few times and well there u go :P  
 
any questions or comments email   
me at wishu_werehere@hotmail.com
[ Tab from: http://www.guitartabs.cc/tabs/b/ben_harper/the_drugs_dont_work_tab.html ]
Comments