Ben Harper - Steal My Kisses Chords & Tabs

 

Steal My Kisses Chords & Tabs

Ben Harper Chords & Tabs

Version: 3 Type: Tab 0 ratings
1 star 2 stars 3 stars 4 stars 5 stars
comments

Steal My Kisses Tab

   
-------------------------------------------------------------------------------
Steal My Kisses - Ben Harper And the Innocent Criminals
-------------------------------------------------------------------------------
Tabbed by:Chris Smith    zymotick@hotmail.com
Im just sick of all these bad tabs that don't even sound like the real thing. So I
decided to write one out myself, which for once is at the correct pitch...here it i

Tuning : E A D G B E when he does it on Live in Mars     But it is in D G C F A D when
he does it on the albulm this is the main riff repeated throughout the song, pretty
basic, listen to it for the correct rhythm
[ Tab from: http://www.guitartabs.cc/tabs/b/ben_harper/steal_my_kisses_tab_ver_3.html ]
G5			     Am
e|-------------------------------|----------------------------------------|
B|-----8----8---8---8---8---8-8--|--10---10-10---10--10--10---10-10---11--|
G|-----7----7---7---7---7---7-7--|---9----9--9----9---9---9----9--9-------|
D|-----5--5-5---5---5---5---5-5--|--10---10-10---10--10--10---10-10-------|
A|-------------------------------|----------------------------------------|
E|-------------------------------|----------------------------------------|
       A#m/Bm                                G5
e|-------------------------------------|-----------------------------------|
B|-----11/12---12-12----12-----12---10-|------8----8---8---8---8---8-8-----|
G|-----10/11---11-11----11-----11----9-|------7----7---7---7---7---7-7-----|
D|-----11/12---12-12----12-----12---10-|------5--5-5---5---5---5---5-5-----|
A|-------------------------------------|-----------------------------------|
E|-------------------------------------|-----------------------------------|
Comments