Ben Harper - Sexual Healing Chords & Tabs

 

Sexual Healing Chords & Tabs

Ben Harper Chords & Tabs

Version: 3 Type: Tab 0 ratings
1 star 2 stars 3 stars 4 stars 5 stars
comments

Sexual Healing Tab

Live Performance
[ Tab from: http://www.guitartabs.cc/tabs/b/ben_harper/sexual_healing_tab_ver_3.html ]
-------------------------------------------------------------------|
-------------------------------------------------------------------|
-------------------------------------5-----------------------------|
---5-5-5----7-7-7--2-2-2-2----3-3-3--5---------2-0-----------------|
---5-5-5----7-7-7--2-2-2-2----3-3-3--3----0h3-------3--------------|
-3-3-3-3--5-5-5-5--0-0-0-0--1-1-1-1-----3--------------------------|
...and when i get that feeling........sexual healing.....
-------------------------------------------------------------------|
-------------------------------------------------------------------|
-------0----5-5-5-5-5-5-------9-9-9-9-9--10-10-10-10-10-10---------|
---0-2------5-5-5-5-5-5-------9-9-9-9-9--10-10-10-10-10-10---------|
-3-------3--3-3-3-3-3-3---5h7-7-7-7-7-7---8--8--8--8--8--8---------|
-------------------------------------------------------------------|
It something thats good for me.......
Comments