Ben Harper - Sexual Healing Chords & Tabs

 

Sexual Healing Chords & Tabs

Ben Harper Chords & Tabs

Version: 1 Type: Tab 0 ratings
1 star 2 stars 3 stars 4 stars 5 stars
comments

Sexual Healing Tab

   
The last tab is fairly correct but there are a few mistakes.  I saw him on leno
ans this is how he was playing it.
[ Tab from: http://www.guitartabs.cc/tabs/b/ben_harper/sexual_healing_tab.html ]
Verse
     G(3X) Am(3x) F(2X) C(1X)
E----3-----0------0-----0------------------------------------------------|
B----0-----1------1-----1------------------------------------------------|
G----0-----2------2-----0------------------------------------------------|
D----0-----2------3-----2-----0-2-0--------------------------------------|
A----2---0------0-------3-0-3-------3-0----------------------------------|
E--3-3------------------0------------------------------------------------|

Chorus


     G         Bm       C
E----3---------2--------0------------------------------------|
B----0---------3--------1------------------------------------|
G----0---------4--------0------------------------------------|
D----0---------4--------2------------------------------------|
A----2---------2--------3----0-2-3-5-------------------------|
E----3---------2--------0------------3-----------------------|
                                        (back to G)

This sounds pretty good.  the rhythm is fairly easy to figure out.

      happy playing
Comments